  0
SECTION
  2
HEADER
  9
$ACADVER
  1
AC1014
  9
$HANDSEED
  5
FFFF
  9
$MEASUREMENT
 70
     1
  0
ENDSEC
  0
SECTION
  2
TABLES
  0
TABLE
  2
VPORT
  5
8
330
0
100
AcDbSymbolTable
 70
     4
  0
VPORT
  5
2E
330
8
100
AcDbSymbolTableRecord
100
AcDbViewportTableRecord
  2
*ACTIVE
 70
     0
 10
0.0
 20
0.0
 11
1.0
 21
1.0
 12
210.0
 22
148.5
 13
0.0
 23
0.0
 14
10.0
 24
10.0
 15
10.0
 25
10.0
 16
0.0
 26
0.0
 36
1.0
 17
0.0
 27
0.0
 37
0.0
 40
341.0
 41
1.24
 42
50.0
 43
0.0
 44
0.0
 50
0.0
 51
0.0
 71
     0
 72
   100
 73
     1
 74
     3
 75
     0
 76
     0
 77
     0
 78
     0
  0
ENDTAB
  0
TABLE
  2
LTYPE
  5
5
330
0
100
AcDbSymbolTable
 70
     1
  0
LTYPE
  5
14
330
5
100
AcDbSymbolTableRecord
100
AcDbLinetypeTableRecord
  2
BYBLOCK
 70
     0
  3

 72
    65
 73
     0
 40
0.0
  0
LTYPE
  5
15
330
5
100
AcDbSymbolTableRecord
100
AcDbLinetypeTableRecord
  2
BYLAYER
 70
     0
  3

 72
    65
 73
     0
 40
0.0
  0
LTYPE
  5
16
330
5
100
AcDbSymbolTableRecord
100
AcDbLinetypeTableRecord
  2
CONTINUOUS
 70
     0
  3
Solid line
 72
    65
 73
     0
 40
0.0
  0
ENDTAB
  0
TABLE
  2
LAYER
  5
2
100
AcDbSymbolTable
 70
2
  0
LAYER
  5
50
100
AcDbSymbolTableRecord
100
AcDbLayerTableRecord
  2
0
 70
0
  6
CONTINUOUS
  0
LAYER
  5
51
100
AcDbSymbolTableRecord
100
AcDbLayerTableRecord
  2
Layer_1
 70
0
  6
CONTINUOUS
  0
ENDTAB
  0
TABLE
  2
STYLE
  5
3
330
0
100
AcDbSymbolTable
 70
     1
  0
STYLE
  5
11
330
3
100
AcDbSymbolTableRecord
100
AcDbTextStyleTableRecord
  2
STANDARD
 70
     0
 40
0.0
 41
1.0
 50
0.0
 71
     0
 42
2.5
  3
txt
  4

  0
ENDTAB
  0
TABLE
  2
VIEW
  5
6
330
0
100
AcDbSymbolTable
 70
     0
  0
ENDTAB
  0
TABLE
  2
UCS
  5
7
330
0
100
AcDbSymbolTable
 70
     0
  0
ENDTAB
  0
TABLE
  2
APPID
  5
9
330
0
100
AcDbSymbolTable
 70
     2
  0
APPID
  5
12
330
9
100
AcDbSymbolTableRecord
100
AcDbRegAppTableRecord
  2
ACAD
 70
     0
  0
ENDTAB
  0
TABLE
  2
DIMSTYLE
  5
A
330
0
100
AcDbSymbolTable
 70
     1
  0
DIMSTYLE
105
27
330
A
100
AcDbSymbolTableRecord
100
AcDbDimStyleTableRecord
  2
ISO-25
 70
     0
  3

  4

  5

  6

  7

 40
1.0
 41
2.5
 42
0.625
 43
3.75
 44
1.25
 45
0.0
 46
0.0
 47
0.0
 48
0.0
140
2.5
141
2.5
142
0.0
143
0.03937007874016
144
1.0
145
0.0
146
1.0
147
0.625
 71
     0
 72
     0
 73
     0
 74
     0
 75
     0
 76
     0
 77
     1
 78
     8
170
     0
171
     3
172
     1
173
     0
174
     0
175
     0
176
     0
177
     0
178
     0
270
     2
271
     2
272
     2
273
     2
274
     3
340
11
275
     0
280
     0
281
     0
282
     0
283
     0
284
     8
285
     0
286
     0
287
     3
288
     0
  0
ENDTAB
  0
TABLE
  2
BLOCK_RECORD
  5
1
330
0
100
AcDbSymbolTable
 70
     1
  0
BLOCK_RECORD
  5
1F
330
1
100
AcDbSymbolTableRecord
100
AcDbBlockTableRecord
  2
*MODEL_SPACE
  0
BLOCK_RECORD
  5
1B
330
1
100
AcDbSymbolTableRecord
100
AcDbBlockTableRecord
  2
*PAPER_SPACE
  0
ENDTAB
  0
ENDSEC
  0
SECTION
  2
BLOCKS
  0
BLOCK
  5
20
330
1F
100
AcDbEntity
  8
0
100
AcDbBlockBegin
  2
*MODEL_SPACE
 70
     0
 10
0.0
 20
0.0
 30
0.0
  3
*MODEL_SPACE
  1

  0
ENDBLK
  5
21
330
1F
100
AcDbEntity
  8
0
100
AcDbBlockEnd
  0
BLOCK
  5
1C
330
1B
100
AcDbEntity
 67
     1
  8
0
100
AcDbBlockBegin
  2
*PAPER_SPACE
  1

  0
ENDBLK
  5
1D
330
1B
100
AcDbEntity
 67
     1
  8
0
100
AcDbBlockEnd
  0
ENDSEC
  0
SECTION
  2
ENTITIES
  0
SPLINE
  5
100
100
AcDbEntity
  8
Layer_1
 62
7
100
AcDbSpline
 70
8
 71
3
 72
8
 73
4
 74
0
 40
0
 40
0
 40
0
 40
0
 40
1
 40
1
 40
1
 40
1
 10
177.891321
 20
641.053052
 30
0.0
 10
177.891321
 20
641.588806
 30
0.0
 10
177.605412
 20
642.084105
 30
0.0
 10
177.141334
 20
642.352128
 30
0.0
  0
SPLINE
  5
101
100
AcDbEntity
  8
Layer_1
 62
7
100
AcDbSpline
 70
8
 71
3
 72
8
 73
4
 74
0
 40
0
 40
0
 40
0
 40
0
 40
1
 40
1
 40
1
 40
1
 10
177.141334
 20
642.352128
 30
0.0
 10
176.677229
 20
642.619886
 30
0.0
 10
176.105415
 20
642.619886
 30
0.0
 10
175.641336
 20
642.352128
 30
0.0
  0
SPLINE
  5
102
100
AcDbEntity
  8
Layer_1
 62
7
100
AcDbSpline
 70
8
 71
3
 72
8
 73
4
 74
0
 40
0
 40
0
 40
0
 40
0
 40
1
 40
1
 40
1
 40
1
 10
175.641336
 20
642.352128
 30
0.0
 10
175.177231
 20
642.084105
 30
0.0
 10
174.891323
 20
641.588806
 30
0.0
 10
174.891323
 20
641.053052
 30
0.0
  0
SPLINE
  5
103
100
AcDbEntity
  8
Layer_1
 62
7
100
AcDbSpline
 70
8
 71
3
 72
8
 73
4
 74
0
 40
0
 40
0
 40
0
 40
0
 40
1
 40
1
 40
1
 40
1
 10
174.891323
 20
641.053052
 30
0.0
 10
174.891323
 20
640.516980
 30
0.0
 10
175.177231
 20
640.021972
 30
0.0
 10
175.641336
 20
639.753949
 30
0.0
  0
SPLINE
  5
104
100
AcDbEntity
  8
Layer_1
 62
7
100
AcDbSpline
 70
8
 71
3
 72
8
 73
4
 74
0
 40
0
 40
0
 40
0
 40
0
 40
1
 40
1
 40
1
 40
1
 10
175.641336
 20
639.753949
 30
0.0
 10
176.105415
 20
639.485927
 30
0.0
 10
176.677229
 20
639.485927
 30
0.0
 10
177.141334
 20
639.753949
 30
0.0
  0
SPLINE
  5
105
100
AcDbEntity
  8
Layer_1
 62
7
100
AcDbSpline
 70
8
 71
3
 72
8
 73
4
 74
0
 40
0
 40
0
 40
0
 40
0
 40
1
 40
1
 40
1
 40
1
 10
177.141334
 20
639.753949
 30
0.0
 10
177.605412
 20
640.021972
 30
0.0
 10
177.891321
 20
640.516980
 30
0.0
 10
177.891321
 20
641.053052
 30
0.0
  0
SPLINE
  5
106
100
AcDbEntity
  8
Layer_1
 62
7
100
AcDbSpline
 70
8
 71
3
 72
8
 73
4
 74
0
 40
0
 40
0
 40
0
 40
0
 40
1
 40
1
 40
1
 40
1
 10
24.691898
 20
641.053052
 30
0.0
 10
24.691898
 20
641.589070
 30
0.0
 10
24.406492
 20
642.084634
 30
0.0
 10
23.942229
 20
642.352922
 30
0.0
  0
SPLINE
  5
107
100
AcDbEntity
  8
Layer_1
 62
7
100
AcDbSpline
 70
8
 71
3
 72
8
 73
4
 74
0
 40
0
 40
0
 40
0
 40
0
 40
1
 40
1
 40
1
 40
1
 10
23.942229
 20
642.352922
 30
0.0
 10
23.477966
 20
642.621209
 30
0.0
 10
22.905859
 20
642.621209
 30
0.0
 10
22.441596
 20
642.352922
 30
0.0
  0
SPLINE
  5
108
100
AcDbEntity
  8
Layer_1
 62
7
100
AcDbSpline
 70
8
 71
3
 72
8
 73
4
 74
0
 40
0
 40
0
 40
0
 40
0
 40
1
 40
1
 40
1
 40
1
 10
22.441596
 20
642.352922
 30
0.0
 10
21.977332
 20
642.084634
 30
0.0
 10
21.691531
 20
641.589070
 30
0.0
 10
21.691927
 20
641.053052
 30
0.0
  0
SPLINE
  5
109
100
AcDbEntity
  8
Layer_1
 62
7
100
AcDbSpline
 70
8
 71
3
 72
8
 73
4
 74
0
 40
0
 40
0
 40
0
 40
0
 40
1
 40
1
 40
1
 40
1
 10
21.691927
 20
641.053052
 30
0.0
 10
21.691927
 20
640.516980
 30
0.0
 10
21.977332
 20
640.021178
 30
0.0
 10
22.441596
 20
639.753156
 30
0.0
  0
SPLINE
  5
10a
100
AcDbEntity
  8
Layer_1
 62
7
100
AcDbSpline
 70
8
 71
3
 72
8
 73
4
 74
0
 40
0
 40
0
 40
0
 40
0
 40
1
 40
1
 40
1
 40
1
 10
22.441596
 20
639.753156
 30
0.0
 10
22.905859
 20
639.484868
 30
0.0
 10
23.477966
 20
639.484868
 30
0.0
 10
23.942229
 20
639.753156
 30
0.0
  0
SPLINE
  5
10b
100
AcDbEntity
  8
Layer_1
 62
7
100
AcDbSpline
 70
8
 71
3
 72
8
 73
4
 74
0
 40
0
 40
0
 40
0
 40
0
 40
1
 40
1
 40
1
 40
1
 10
23.942229
 20
639.753156
 30
0.0
 10
24.406492
 20
640.021178
 30
0.0
 10
24.692295
 20
640.516980
 30
0.0
 10
24.691898
 20
641.053052
 30
0.0
  0
SPLINE
  5
10c
100
AcDbEntity
  8
Layer_1
 62
7
100
AcDbSpline
 70
8
 71
3
 72
8
 73
4
 74
0
 40
0
 40
0
 40
0
 40
0
 40
1
 40
1
 40
1
 40
1
 10
264.040998
 20
495.374615
 30
0.0
 10
264.040998
 20
495.910660
 30
0.0
 10
263.755090
 20
496.405695
 30
0.0
 10
263.290985
 20
496.673715
 30
0.0
  0
SPLINE
  5
10d
100
AcDbEntity
  8
Layer_1
 62
7
100
AcDbSpline
 70
8
 71
3
 72
8
 73
4
 74
0
 40
0
 40
0
 40
0
 40
0
 40
1
 40
1
 40
1
 40
1
 10
263.290985
 20
496.673715
 30
0.0
 10
262.826909
 20
496.941740
 30
0.0
 10
262.255092
 20
496.941740
 30
0.0
 10
261.791013
 20
496.673715
 30
0.0
  0
SPLINE
  5
10e
100
AcDbEntity
  8
Layer_1
 62
7
100
AcDbSpline
 70
8
 71
3
 72
8
 73
4
 74
0
 40
0
 40
0
 40
0
 40
0
 40
1
 40
1
 40
1
 40
1
 10
261.791013
 20
496.673715
 30
0.0
 10
261.326908
 20
496.405695
 30
0.0
 10
261.041000
 20
495.910660
 30
0.0
 10
261.041000
 20
495.374615
 30
0.0
  0
SPLINE
  5
10f
100
AcDbEntity
  8
Layer_1
 62
7
100
AcDbSpline
 70
8
 71
3
 72
8
 73
4
 74
0
 40
0
 40
0
 40
0
 40
0
 40
1
 40
1
 40
1
 40
1
 10
261.041000
 20
495.374615
 30
0.0
 10
261.041000
 20
494.838835
 30
0.0
 10
261.326908
 20
494.343538
 30
0.0
 10
261.791013
 20
494.075515
 30
0.0
  0
SPLINE
  5
110
100
AcDbEntity
  8
Layer_1
 62
7
100
AcDbSpline
 70
8
 71
3
 72
8
 73
4
 74
0
 40
0
 40
0
 40
0
 40
0
 40
1
 40
1
 40
1
 40
1
 10
261.791013
 20
494.075515
 30
0.0
 10
262.255092
 20
493.807757
 30
0.0
 10
262.826909
 20
493.807757
 30
0.0
 10
263.290985
 20
494.075515
 30
0.0
  0
SPLINE
  5
111
100
AcDbEntity
  8
Layer_1
 62
7
100
AcDbSpline
 70
8
 71
3
 72
8
 73
4
 74
0
 40
0
 40
0
 40
0
 40
0
 40
1
 40
1
 40
1
 40
1
 10
263.290985
 20
494.075515
 30
0.0
 10
263.755090
 20
494.343538
 30
0.0
 10
264.040998
 20
494.838835
 30
0.0
 10
264.040998
 20
495.374615
 30
0.0
  0
SPLINE
  5
112
100
AcDbEntity
  8
Layer_1
 62
7
100
AcDbSpline
 70
8
 71
3
 72
8
 73
4
 74
0
 40
0
 40
0
 40
0
 40
0
 40
1
 40
1
 40
1
 40
1
 10
264.040998
 20
641.053052
 30
0.0
 10
264.040998
 20
641.588806
 30
0.0
 10
263.755090
 20
642.084105
 30
0.0
 10
263.290985
 20
642.352128
 30
0.0
  0
SPLINE
  5
113
100
AcDbEntity
  8
Layer_1
 62
7
100
AcDbSpline
 70
8
 71
3
 72
8
 73
4
 74
0
 40
0
 40
0
 40
0
 40
0
 40
1
 40
1
 40
1
 40
1
 10
263.290985
 20
642.352128
 30
0.0
 10
262.826909
 20
642.619886
 30
0.0
 10
262.255092
 20
642.619886
 30
0.0
 10
261.791013
 20
642.352128
 30
0.0
  0
SPLINE
  5
114
100
AcDbEntity
  8
Layer_1
 62
7
100
AcDbSpline
 70
8
 71
3
 72
8
 73
4
 74
0
 40
0
 40
0
 40
0
 40
0
 40
1
 40
1
 40
1
 40
1
 10
261.791013
 20
642.352128
 30
0.0
 10
261.326908
 20
642.084105
 30
0.0
 10
261.041000
 20
641.588806
 30
0.0
 10
261.041000
 20
641.053052
 30
0.0
  0
SPLINE
  5
115
100
AcDbEntity
  8
Layer_1
 62
7
100
AcDbSpline
 70
8
 71
3
 72
8
 73
4
 74
0
 40
0
 40
0
 40
0
 40
0
 40
1
 40
1
 40
1
 40
1
 10
261.041000
 20
641.053052
 30
0.0
 10
261.041000
 20
640.516980
 30
0.0
 10
261.326908
 20
640.021972
 30
0.0
 10
261.791013
 20
639.753949
 30
0.0
  0
SPLINE
  5
116
100
AcDbEntity
  8
Layer_1
 62
7
100
AcDbSpline
 70
8
 71
3
 72
8
 73
4
 74
0
 40
0
 40
0
 40
0
 40
0
 40
1
 40
1
 40
1
 40
1
 10
261.791013
 20
639.753949
 30
0.0
 10
262.255092
 20
639.485927
 30
0.0
 10
262.826909
 20
639.485927
 30
0.0
 10
263.290985
 20
639.753949
 30
0.0
  0
SPLINE
  5
117
100
AcDbEntity
  8
Layer_1
 62
7
100
AcDbSpline
 70
8
 71
3
 72
8
 73
4
 74
0
 40
0
 40
0
 40
0
 40
0
 40
1
 40
1
 40
1
 40
1
 10
263.290985
 20
639.753949
 30
0.0
 10
263.755090
 20
640.021972
 30
0.0
 10
264.040998
 20
640.516980
 30
0.0
 10
264.040998
 20
641.053052
 30
0.0
  0
SPLINE
  5
118
100
AcDbEntity
  8
Layer_1
 62
7
100
AcDbSpline
 70
8
 71
3
 72
8
 73
4
 74
0
 40
0
 40
0
 40
0
 40
0
 40
1
 40
1
 40
1
 40
1
 10
24.691898
 20
495.374615
 30
0.0
 10
24.691898
 20
495.910925
 30
0.0
 10
24.406492
 20
496.406489
 30
0.0
 10
23.942229
 20
496.674511
 30
0.0
  0
SPLINE
  5
119
100
AcDbEntity
  8
Layer_1
 62
7
100
AcDbSpline
 70
8
 71
3
 72
8
 73
4
 74
0
 40
0
 40
0
 40
0
 40
0
 40
1
 40
1
 40
1
 40
1
 10
23.942229
 20
496.674511
 30
0.0
 10
23.477966
 20
496.942796
 30
0.0
 10
22.905859
 20
496.942796
 30
0.0
 10
22.441596
 20
496.674511
 30
0.0
  0
SPLINE
  5
11a
100
AcDbEntity
  8
Layer_1
 62
7
100
AcDbSpline
 70
8
 71
3
 72
8
 73
4
 74
0
 40
0
 40
0
 40
0
 40
0
 40
1
 40
1
 40
1
 40
1
 10
22.441596
 20
496.674511
 30
0.0
 10
21.977332
 20
496.406489
 30
0.0
 10
21.691531
 20
495.910925
 30
0.0
 10
21.691927
 20
495.374615
 30
0.0
  0
SPLINE
  5
11b
100
AcDbEntity
  8
Layer_1
 62
7
100
AcDbSpline
 70
8
 71
3
 72
8
 73
4
 74
0
 40
0
 40
0
 40
0
 40
0
 40
1
 40
1
 40
1
 40
1
 10
21.691927
 20
495.374615
 30
0.0
 10
21.691927
 20
494.838570
 30
0.0
 10
21.977332
 20
494.343006
 30
0.0
 10
22.441596
 20
494.074721
 30
0.0
  0
SPLINE
  5
11c
100
AcDbEntity
  8
Layer_1
 62
7
100
AcDbSpline
 70
8
 71
3
 72
8
 73
4
 74
0
 40
0
 40
0
 40
0
 40
0
 40
1
 40
1
 40
1
 40
1
 10
22.441596
 20
494.074721
 30
0.0
 10
22.905859
 20
493.806434
 30
0.0
 10
23.477966
 20
493.806434
 30
0.0
 10
23.942229
 20
494.074721
 30
0.0
  0
SPLINE
  5
11d
100
AcDbEntity
  8
Layer_1
 62
7
100
AcDbSpline
 70
8
 71
3
 72
8
 73
4
 74
0
 40
0
 40
0
 40
0
 40
0
 40
1
 40
1
 40
1
 40
1
 10
23.942229
 20
494.074721
 30
0.0
 10
24.406492
 20
494.343006
 30
0.0
 10
24.692295
 20
494.838570
 30
0.0
 10
24.691898
 20
495.374615
 30
0.0
  0
SPLINE
  5
11e
100
AcDbEntity
  8
Layer_1
 62
7
100
AcDbSpline
 70
8
 71
3
 72
8
 73
4
 74
0
 40
0
 40
0
 40
0
 40
0
 40
1
 40
1
 40
1
 40
1
 10
177.891321
 20
495.374615
 30
0.0
 10
177.891321
 20
495.910660
 30
0.0
 10
177.605412
 20
496.405695
 30
0.0
 10
177.141334
 20
496.673715
 30
0.0
  0
SPLINE
  5
11f
100
AcDbEntity
  8
Layer_1
 62
7
100
AcDbSpline
 70
8
 71
3
 72
8
 73
4
 74
0
 40
0
 40
0
 40
0
 40
0
 40
1
 40
1
 40
1
 40
1
 10
177.141334
 20
496.673715
 30
0.0
 10
176.677229
 20
496.941740
 30
0.0
 10
176.105415
 20
496.941740
 30
0.0
 10
175.641336
 20
496.673715
 30
0.0
  0
SPLINE
  5
120
100
AcDbEntity
  8
Layer_1
 62
7
100
AcDbSpline
 70
8
 71
3
 72
8
 73
4
 74
0
 40
0
 40
0
 40
0
 40
0
 40
1
 40
1
 40
1
 40
1
 10
175.641336
 20
496.673715
 30
0.0
 10
175.177231
 20
496.405695
 30
0.0
 10
174.891323
 20
495.910660
 30
0.0
 10
174.891323
 20
495.374615
 30
0.0
  0
SPLINE
  5
121
100
AcDbEntity
  8
Layer_1
 62
7
100
AcDbSpline
 70
8
 71
3
 72
8
 73
4
 74
0
 40
0
 40
0
 40
0
 40
0
 40
1
 40
1
 40
1
 40
1
 10
174.891323
 20
495.374615
 30
0.0
 10
174.891323
 20
494.838835
 30
0.0
 10
175.177231
 20
494.343538
 30
0.0
 10
175.641336
 20
494.075515
 30
0.0
  0
SPLINE
  5
122
100
AcDbEntity
  8
Layer_1
 62
7
100
AcDbSpline
 70
8
 71
3
 72
8
 73
4
 74
0
 40
0
 40
0
 40
0
 40
0
 40
1
 40
1
 40
1
 40
1
 10
175.641336
 20
494.075515
 30
0.0
 10
176.105415
 20
493.807757
 30
0.0
 10
176.677229
 20
493.807757
 30
0.0
 10
177.141334
 20
494.075515
 30
0.0
  0
SPLINE
  5
123
100
AcDbEntity
  8
Layer_1
 62
7
100
AcDbSpline
 70
8
 71
3
 72
8
 73
4
 74
0
 40
0
 40
0
 40
0
 40
0
 40
1
 40
1
 40
1
 40
1
 10
177.141334
 20
494.075515
 30
0.0
 10
177.605412
 20
494.343538
 30
0.0
 10
177.891321
 20
494.838835
 30
0.0
 10
177.891321
 20
495.374615
 30
0.0
  0
SPLINE
  5
124
100
AcDbEntity
  8
Layer_1
 62
7
100
AcDbSpline
 70
8
 71
3
 72
8
 73
4
 74
0
 40
0
 40
0
 40
0
 40
0
 40
1
 40
1
 40
1
 40
1
 10
182.116309
 20
510.844508
 30
0.0
 10
182.116309
 20
511.228682
 30
0.0
 10
181.911416
 20
511.583488
 30
0.0
 10
181.578809
 20
511.775575
 30
0.0
  0
SPLINE
  5
125
100
AcDbEntity
  8
Layer_1
 62
7
100
AcDbSpline
 70
8
 71
3
 72
8
 73
4
 74
0
 40
0
 40
0
 40
0
 40
0
 40
1
 40
1
 40
1
 40
1
 10
181.578809
 20
511.775575
 30
0.0
 10
181.246202
 20
511.967398
 30
0.0
 10
180.836418
 20
511.967398
 30
0.0
 10
180.503811
 20
511.775575
 30
0.0
  0
SPLINE
  5
126
100
AcDbEntity
  8
Layer_1
 62
7
100
AcDbSpline
 70
8
 71
3
 72
8
 73
4
 74
0
 40
0
 40
0
 40
0
 40
0
 40
1
 40
1
 40
1
 40
1
 10
180.503811
 20
511.775575
 30
0.0
 10
180.171203
 20
511.583488
 30
0.0
 10
179.966310
 20
511.228682
 30
0.0
 10
179.966310
 20
510.844508
 30
0.0
  0
SPLINE
  5
127
100
AcDbEntity
  8
Layer_1
 62
7
100
AcDbSpline
 70
8
 71
3
 72
8
 73
4
 74
0
 40
0
 40
0
 40
0
 40
0
 40
1
 40
1
 40
1
 40
1
 10
179.966310
 20
510.844508
 30
0.0
 10
179.966310
 20
510.460333
 30
0.0
 10
180.171203
 20
510.105528
 30
0.0
 10
180.503811
 20
509.913440
 30
0.0
  0
SPLINE
  5
128
100
AcDbEntity
  8
Layer_1
 62
7
100
AcDbSpline
 70
8
 71
3
 72
8
 73
4
 74
0
 40
0
 40
0
 40
0
 40
0
 40
1
 40
1
 40
1
 40
1
 10
180.503811
 20
509.913440
 30
0.0
 10
180.836418
 20
509.721618
 30
0.0
 10
181.246202
 20
509.721618
 30
0.0
 10
181.578809
 20
509.913440
 30
0.0
  0
SPLINE
  5
129
100
AcDbEntity
  8
Layer_1
 62
7
100
AcDbSpline
 70
8
 71
3
 72
8
 73
4
 74
0
 40
0
 40
0
 40
0
 40
0
 40
1
 40
1
 40
1
 40
1
 10
181.578809
 20
509.913440
 30
0.0
 10
181.911416
 20
510.105528
 30
0.0
 10
182.116309
 20
510.460333
 30
0.0
 10
182.116309
 20
510.844508
 30
0.0
  0
SPLINE
  5
12a
100
AcDbEntity
  8
Layer_1
 62
7
100
AcDbSpline
 70
8
 71
3
 72
8
 73
4
 74
0
 40
0
 40
0
 40
0
 40
0
 40
1
 40
1
 40
1
 40
1
 10
182.116309
 20
576.844129
 30
0.0
 10
182.116309
 20
577.228303
 30
0.0
 10
181.911416
 20
577.583083
 30
0.0
 10
181.578809
 20
577.775196
 30
0.0
  0
SPLINE
  5
12b
100
AcDbEntity
  8
Layer_1
 62
7
100
AcDbSpline
 70
8
 71
3
 72
8
 73
4
 74
0
 40
0
 40
0
 40
0
 40
0
 40
1
 40
1
 40
1
 40
1
 10
181.578809
 20
577.775196
 30
0.0
 10
181.246202
 20
577.967257
 30
0.0
 10
180.836418
 20
577.967257
 30
0.0
 10
180.503811
 20
577.775196
 30
0.0
  0
SPLINE
  5
12c
100
AcDbEntity
  8
Layer_1
 62
7
100
AcDbSpline
 70
8
 71
3
 72
8
 73
4
 74
0
 40
0
 40
0
 40
0
 40
0
 40
1
 40
1
 40
1
 40
1
 10
180.503811
 20
577.775196
 30
0.0
 10
180.171203
 20
577.583083
 30
0.0
 10
179.966310
 20
577.228303
 30
0.0
 10
179.966310
 20
576.844129
 30
0.0
  0
SPLINE
  5
12d
100
AcDbEntity
  8
Layer_1
 62
7
100
AcDbSpline
 70
8
 71
3
 72
8
 73
4
 74
0
 40
0
 40
0
 40
0
 40
0
 40
1
 40
1
 40
1
 40
1
 10
179.966310
 20
576.844129
 30
0.0
 10
179.966310
 20
576.460219
 30
0.0
 10
180.171203
 20
576.105413
 30
0.0
 10
180.503811
 20
575.913326
 30
0.0
  0
SPLINE
  5
12e
100
AcDbEntity
  8
Layer_1
 62
7
100
AcDbSpline
 70
8
 71
3
 72
8
 73
4
 74
0
 40
0
 40
0
 40
0
 40
0
 40
1
 40
1
 40
1
 40
1
 10
180.503811
 20
575.913326
 30
0.0
 10
180.836418
 20
575.721238
 30
0.0
 10
181.246202
 20
575.721238
 30
0.0
 10
181.578809
 20
575.913326
 30
0.0
  0
SPLINE
  5
12f
100
AcDbEntity
  8
Layer_1
 62
7
100
AcDbSpline
 70
8
 71
3
 72
8
 73
4
 74
0
 40
0
 40
0
 40
0
 40
0
 40
1
 40
1
 40
1
 40
1
 10
181.578809
 20
575.913326
 30
0.0
 10
181.911416
 20
576.105413
 30
0.0
 10
182.116309
 20
576.460219
 30
0.0
 10
182.116309
 20
576.844129
 30
0.0
  0
SPLINE
  5
130
100
AcDbEntity
  8
Layer_1
 62
7
100
AcDbSpline
 70
8
 71
3
 72
8
 73
4
 74
0
 40
0
 40
0
 40
0
 40
0
 40
1
 40
1
 40
1
 40
1
 10
240.116083
 20
576.844129
 30
0.0
 10
240.116083
 20
577.228303
 30
0.0
 10
239.911190
 20
577.583083
 30
0.0
 10
239.578583
 20
577.775196
 30
0.0
  0
SPLINE
  5
131
100
AcDbEntity
  8
Layer_1
 62
7
100
AcDbSpline
 70
8
 71
3
 72
8
 73
4
 74
0
 40
0
 40
0
 40
0
 40
0
 40
1
 40
1
 40
1
 40
1
 10
239.578583
 20
577.775196
 30
0.0
 10
239.245978
 20
577.967257
 30
0.0
 10
238.836192
 20
577.967257
 30
0.0
 10
238.503585
 20
577.775196
 30
0.0
  0
SPLINE
  5
132
100
AcDbEntity
  8
Layer_1
 62
7
100
AcDbSpline
 70
8
 71
3
 72
8
 73
4
 74
0
 40
0
 40
0
 40
0
 40
0
 40
1
 40
1
 40
1
 40
1
 10
238.503585
 20
577.775196
 30
0.0
 10
238.170977
 20
577.583083
 30
0.0
 10
237.966084
 20
577.228303
 30
0.0
 10
237.966084
 20
576.844129
 30
0.0
  0
SPLINE
  5
133
100
AcDbEntity
  8
Layer_1
 62
7
100
AcDbSpline
 70
8
 71
3
 72
8
 73
4
 74
0
 40
0
 40
0
 40
0
 40
0
 40
1
 40
1
 40
1
 40
1
 10
237.966084
 20
576.844129
 30
0.0
 10
237.966084
 20
576.460219
 30
0.0
 10
238.170977
 20
576.105413
 30
0.0
 10
238.503585
 20
575.913326
 30
0.0
  0
SPLINE
  5
134
100
AcDbEntity
  8
Layer_1
 62
7
100
AcDbSpline
 70
8
 71
3
 72
8
 73
4
 74
0
 40
0
 40
0
 40
0
 40
0
 40
1
 40
1
 40
1
 40
1
 10
238.503585
 20
575.913326
 30
0.0
 10
238.836192
 20
575.721238
 30
0.0
 10
239.245978
 20
575.721238
 30
0.0
 10
239.578583
 20
575.913326
 30
0.0
  0
SPLINE
  5
135
100
AcDbEntity
  8
Layer_1
 62
7
100
AcDbSpline
 70
8
 71
3
 72
8
 73
4
 74
0
 40
0
 40
0
 40
0
 40
0
 40
1
 40
1
 40
1
 40
1
 10
239.578583
 20
575.913326
 30
0.0
 10
239.911190
 20
576.105413
 30
0.0
 10
240.116083
 20
576.460219
 30
0.0
 10
240.116083
 20
576.844129
 30
0.0
  0
SPLINE
  5
136
100
AcDbEntity
  8
Layer_1
 62
7
100
AcDbSpline
 70
8
 71
3
 72
8
 73
4
 74
0
 40
0
 40
0
 40
0
 40
0
 40
1
 40
1
 40
1
 40
1
 10
240.116083
 20
510.844508
 30
0.0
 10
240.116083
 20
511.228682
 30
0.0
 10
239.911190
 20
511.583488
 30
0.0
 10
239.578583
 20
511.775575
 30
0.0
  0
SPLINE
  5
137
100
AcDbEntity
  8
Layer_1
 62
7
100
AcDbSpline
 70
8
 71
3
 72
8
 73
4
 74
0
 40
0
 40
0
 40
0
 40
0
 40
1
 40
1
 40
1
 40
1
 10
239.578583
 20
511.775575
 30
0.0
 10
239.245978
 20
511.967398
 30
0.0
 10
238.836192
 20
511.967398
 30
0.0
 10
238.503585
 20
511.775575
 30
0.0
  0
SPLINE
  5
138
100
AcDbEntity
  8
Layer_1
 62
7
100
AcDbSpline
 70
8
 71
3
 72
8
 73
4
 74
0
 40
0
 40
0
 40
0
 40
0
 40
1
 40
1
 40
1
 40
1
 10
238.503585
 20
511.775575
 30
0.0
 10
238.170977
 20
511.583488
 30
0.0
 10
237.966084
 20
511.228682
 30
0.0
 10
237.966084
 20
510.844508
 30
0.0
  0
SPLINE
  5
139
100
AcDbEntity
  8
Layer_1
 62
7
100
AcDbSpline
 70
8
 71
3
 72
8
 73
4
 74
0
 40
0
 40
0
 40
0
 40
0
 40
1
 40
1
 40
1
 40
1
 10
237.966084
 20
510.844508
 30
0.0
 10
237.966084
 20
510.460333
 30
0.0
 10
238.170977
 20
510.105528
 30
0.0
 10
238.503585
 20
509.913440
 30
0.0
  0
SPLINE
  5
13a
100
AcDbEntity
  8
Layer_1
 62
7
100
AcDbSpline
 70
8
 71
3
 72
8
 73
4
 74
0
 40
0
 40
0
 40
0
 40
0
 40
1
 40
1
 40
1
 40
1
 10
238.503585
 20
509.913440
 30
0.0
 10
238.836192
 20
509.721618
 30
0.0
 10
239.245978
 20
509.721618
 30
0.0
 10
239.578583
 20
509.913440
 30
0.0
  0
SPLINE
  5
13b
100
AcDbEntity
  8
Layer_1
 62
7
100
AcDbSpline
 70
8
 71
3
 72
8
 73
4
 74
0
 40
0
 40
0
 40
0
 40
0
 40
1
 40
1
 40
1
 40
1
 10
239.578583
 20
509.913440
 30
0.0
 10
239.911190
 20
510.105528
 30
0.0
 10
240.116083
 20
510.460333
 30
0.0
 10
240.116083
 20
510.844508
 30
0.0
  0
LWPOLYLINE
  5
13c
100
AcDbEntity
  8
Layer_1
 62
7
100
AcDbPolyline
 90
4
 70
1
 10
272.540981
 20
603.140716
 30
0.0
 10
278.890939
 20
603.140716
 30
0.0
 10
278.890939
 20
622.878052
 30
0.0
 10
272.540981
 20
622.878052
 30
0.0
  0
SPLINE
  5
13d
100
AcDbEntity
  8
Layer_1
 62
7
100
AcDbSpline
 70
8
 71
3
 72
8
 73
4
 74
0
 40
0
 40
0
 40
0
 40
0
 40
1
 40
1
 40
1
 40
1
 10
240.116083
 20
559.844406
 30
0.0
 10
240.116083
 20
560.228316
 30
0.0
 10
239.911190
 20
560.583122
 30
0.0
 10
239.578583
 20
560.775209
 30
0.0
  0
SPLINE
  5
13e
100
AcDbEntity
  8
Layer_1
 62
7
100
AcDbSpline
 70
8
 71
3
 72
8
 73
4
 74
0
 40
0
 40
0
 40
0
 40
0
 40
1
 40
1
 40
1
 40
1
 10
239.578583
 20
560.775209
 30
0.0
 10
239.245978
 20
560.967297
 30
0.0
 10
238.836192
 20
560.967297
 30
0.0
 10
238.503585
 20
560.775209
 30
0.0
  0
SPLINE
  5
13f
100
AcDbEntity
  8
Layer_1
 62
7
100
AcDbSpline
 70
8
 71
3
 72
8
 73
4
 74
0
 40
0
 40
0
 40
0
 40
0
 40
1
 40
1
 40
1
 40
1
 10
238.503585
 20
560.775209
 30
0.0
 10
238.170977
 20
560.583122
 30
0.0
 10
237.966084
 20
560.228316
 30
0.0
 10
237.966084
 20
559.844406
 30
0.0
  0
SPLINE
  5
140
100
AcDbEntity
  8
Layer_1
 62
7
100
AcDbSpline
 70
8
 71
3
 72
8
 73
4
 74
0
 40
0
 40
0
 40
0
 40
0
 40
1
 40
1
 40
1
 40
1
 10
237.966084
 20
559.844406
 30
0.0
 10
237.966084
 20
559.460232
 30
0.0
 10
238.170977
 20
559.105426
 30
0.0
 10
238.503585
 20
558.913339
 30
0.0
  0
SPLINE
  5
141
100
AcDbEntity
  8
Layer_1
 62
7
100
AcDbSpline
 70
8
 71
3
 72
8
 73
4
 74
0
 40
0
 40
0
 40
0
 40
0
 40
1
 40
1
 40
1
 40
1
 10
238.503585
 20
558.913339
 30
0.0
 10
238.836192
 20
558.721252
 30
0.0
 10
239.245978
 20
558.721252
 30
0.0
 10
239.578583
 20
558.913339
 30
0.0
  0
SPLINE
  5
142
100
AcDbEntity
  8
Layer_1
 62
7
100
AcDbSpline
 70
8
 71
3
 72
8
 73
4
 74
0
 40
0
 40
0
 40
0
 40
0
 40
1
 40
1
 40
1
 40
1
 10
239.578583
 20
558.913339
 30
0.0
 10
239.911190
 20
559.105426
 30
0.0
 10
240.116083
 20
559.460232
 30
0.0
 10
240.116083
 20
559.844406
 30
0.0
  0
LWPOLYLINE
  5
143
100
AcDbEntity
  8
Layer_1
 62
7
100
AcDbPolyline
 90
4
 70
1
 10
-7.957974
 20
583.403115
 30
0.0
 10
-14.307959
 20
583.403115
 30
0.0
 10
-14.307959
 20
553.403424
 30
0.0
 10
-7.957974
 20
553.403424
 30
0.0
  0
SPLINE
  5
144
100
AcDbEntity
  8
Layer_1
 62
7
100
AcDbSpline
 70
8
 71
3
 72
8
 73
4
 74
0
 40
0
 40
0
 40
0
 40
0
 40
1
 40
1
 40
1
 40
1
 10
182.116309
 20
625.844027
 30
0.0
 10
182.116309
 20
626.228202
 30
0.0
 10
181.911416
 20
626.583008
 30
0.0
 10
181.578809
 20
626.775095
 30
0.0
  0
SPLINE
  5
145
100
AcDbEntity
  8
Layer_1
 62
7
100
AcDbSpline
 70
8
 71
3
 72
8
 73
4
 74
0
 40
0
 40
0
 40
0
 40
0
 40
1
 40
1
 40
1
 40
1
 10
181.578809
 20
626.775095
 30
0.0
 10
181.246202
 20
626.966917
 30
0.0
 10
180.836418
 20
626.966917
 30
0.0
 10
180.503811
 20
626.775095
 30
0.0
  0
SPLINE
  5
146
100
AcDbEntity
  8
Layer_1
 62
7
100
AcDbSpline
 70
8
 71
3
 72
8
 73
4
 74
0
 40
0
 40
0
 40
0
 40
0
 40
1
 40
1
 40
1
 40
1
 10
180.503811
 20
626.775095
 30
0.0
 10
180.171203
 20
626.583008
 30
0.0
 10
179.966310
 20
626.228202
 30
0.0
 10
179.966310
 20
625.844027
 30
0.0
  0
SPLINE
  5
147
100
AcDbEntity
  8
Layer_1
 62
7
100
AcDbSpline
 70
8
 71
3
 72
8
 73
4
 74
0
 40
0
 40
0
 40
0
 40
0
 40
1
 40
1
 40
1
 40
1
 10
179.966310
 20
625.844027
 30
0.0
 10
179.966310
 20
625.459853
 30
0.0
 10
180.171203
 20
625.105047
 30
0.0
 10
180.503811
 20
624.912960
 30
0.0
  0
SPLINE
  5
148
100
AcDbEntity
  8
Layer_1
 62
7
100
AcDbSpline
 70
8
 71
3
 72
8
 73
4
 74
0
 40
0
 40
0
 40
0
 40
0
 40
1
 40
1
 40
1
 40
1
 10
180.503811
 20
624.912960
 30
0.0
 10
180.836418
 20
624.721137
 30
0.0
 10
181.246202
 20
624.721137
 30
0.0
 10
181.578809
 20
624.912960
 30
0.0
  0
SPLINE
  5
149
100
AcDbEntity
  8
Layer_1
 62
7
100
AcDbSpline
 70
8
 71
3
 72
8
 73
4
 74
0
 40
0
 40
0
 40
0
 40
0
 40
1
 40
1
 40
1
 40
1
 10
181.578809
 20
624.912960
 30
0.0
 10
181.911416
 20
625.105047
 30
0.0
 10
182.116309
 20
625.459853
 30
0.0
 10
182.116309
 20
625.844027
 30
0.0
  0
SPLINE
  5
14a
100
AcDbEntity
  8
Layer_1
 62
7
100
AcDbSpline
 70
8
 71
3
 72
8
 73
4
 74
0
 40
0
 40
0
 40
0
 40
0
 40
1
 40
1
 40
1
 40
1
 10
182.116309
 20
559.844406
 30
0.0
 10
182.116309
 20
560.228316
 30
0.0
 10
181.911416
 20
560.583122
 30
0.0
 10
181.578809
 20
560.775209
 30
0.0
  0
SPLINE
  5
14b
100
AcDbEntity
  8
Layer_1
 62
7
100
AcDbSpline
 70
8
 71
3
 72
8
 73
4
 74
0
 40
0
 40
0
 40
0
 40
0
 40
1
 40
1
 40
1
 40
1
 10
181.578809
 20
560.775209
 30
0.0
 10
181.246202
 20
560.967297
 30
0.0
 10
180.836418
 20
560.967297
 30
0.0
 10
180.503811
 20
560.775209
 30
0.0
  0
SPLINE
  5
14c
100
AcDbEntity
  8
Layer_1
 62
7
100
AcDbSpline
 70
8
 71
3
 72
8
 73
4
 74
0
 40
0
 40
0
 40
0
 40
0
 40
1
 40
1
 40
1
 40
1
 10
180.503811
 20
560.775209
 30
0.0
 10
180.171203
 20
560.583122
 30
0.0
 10
179.966310
 20
560.228316
 30
0.0
 10
179.966310
 20
559.844406
 30
0.0
  0
SPLINE
  5
14d
100
AcDbEntity
  8
Layer_1
 62
7
100
AcDbSpline
 70
8
 71
3
 72
8
 73
4
 74
0
 40
0
 40
0
 40
0
 40
0
 40
1
 40
1
 40
1
 40
1
 10
179.966310
 20
559.844406
 30
0.0
 10
179.966310
 20
559.460232
 30
0.0
 10
180.171203
 20
559.105426
 30
0.0
 10
180.503811
 20
558.913339
 30
0.0
  0
SPLINE
  5
14e
100
AcDbEntity
  8
Layer_1
 62
7
100
AcDbSpline
 70
8
 71
3
 72
8
 73
4
 74
0
 40
0
 40
0
 40
0
 40
0
 40
1
 40
1
 40
1
 40
1
 10
180.503811
 20
558.913339
 30
0.0
 10
180.836418
 20
558.721252
 30
0.0
 10
181.246202
 20
558.721252
 30
0.0
 10
181.578809
 20
558.913339
 30
0.0
  0
SPLINE
  5
14f
100
AcDbEntity
  8
Layer_1
 62
7
100
AcDbSpline
 70
8
 71
3
 72
8
 73
4
 74
0
 40
0
 40
0
 40
0
 40
0
 40
1
 40
1
 40
1
 40
1
 10
181.578809
 20
558.913339
 30
0.0
 10
181.911416
 20
559.105426
 30
0.0
 10
182.116309
 20
559.460232
 30
0.0
 10
182.116309
 20
559.844406
 30
0.0
  0
LWPOLYLINE
  5
150
100
AcDbEntity
  8
Layer_1
 62
7
100
AcDbPolyline
 90
4
 70
1
 10
-7.957974
 20
622.878052
 30
0.0
 10
-14.307959
 20
622.878052
 30
0.0
 10
-14.307959
 20
603.140716
 30
0.0
 10
-7.957974
 20
603.140716
 30
0.0
  0
LWPOLYLINE
  5
151
100
AcDbEntity
  8
Layer_1
 62
7
100
AcDbPolyline
 90
4
 70
1
 10
153.691427
 20
603.140716
 30
0.0
 10
166.391395
 20
603.140716
 30
0.0
 10
166.391395
 20
622.878052
 30
0.0
 10
153.691427
 20
622.878052
 30
0.0
  0
SPLINE
  5
152
100
AcDbEntity
  8
Layer_1
 62
7
100
AcDbSpline
 70
8
 71
3
 72
8
 73
4
 74
0
 40
0
 40
0
 40
0
 40
0
 40
1
 40
1
 40
1
 40
1
 10
240.116083
 20
625.844027
 30
0.0
 10
240.116083
 20
626.228202
 30
0.0
 10
239.911190
 20
626.583008
 30
0.0
 10
239.578583
 20
626.775095
 30
0.0
  0
SPLINE
  5
153
100
AcDbEntity
  8
Layer_1
 62
7
100
AcDbSpline
 70
8
 71
3
 72
8
 73
4
 74
0
 40
0
 40
0
 40
0
 40
0
 40
1
 40
1
 40
1
 40
1
 10
239.578583
 20
626.775095
 30
0.0
 10
239.245978
 20
626.966917
 30
0.0
 10
238.836192
 20
626.966917
 30
0.0
 10
238.503585
 20
626.775095
 30
0.0
  0
SPLINE
  5
154
100
AcDbEntity
  8
Layer_1
 62
7
100
AcDbSpline
 70
8
 71
3
 72
8
 73
4
 74
0
 40
0
 40
0
 40
0
 40
0
 40
1
 40
1
 40
1
 40
1
 10
238.503585
 20
626.775095
 30
0.0
 10
238.170977
 20
626.583008
 30
0.0
 10
237.966084
 20
626.228202
 30
0.0
 10
237.966084
 20
625.844027
 30
0.0
  0
SPLINE
  5
155
100
AcDbEntity
  8
Layer_1
 62
7
100
AcDbSpline
 70
8
 71
3
 72
8
 73
4
 74
0
 40
0
 40
0
 40
0
 40
0
 40
1
 40
1
 40
1
 40
1
 10
237.966084
 20
625.844027
 30
0.0
 10
237.966084
 20
625.459853
 30
0.0
 10
238.170977
 20
625.105047
 30
0.0
 10
238.503585
 20
624.912960
 30
0.0
  0
SPLINE
  5
156
100
AcDbEntity
  8
Layer_1
 62
7
100
AcDbSpline
 70
8
 71
3
 72
8
 73
4
 74
0
 40
0
 40
0
 40
0
 40
0
 40
1
 40
1
 40
1
 40
1
 10
238.503585
 20
624.912960
 30
0.0
 10
238.836192
 20
624.721137
 30
0.0
 10
239.245978
 20
624.721137
 30
0.0
 10
239.578583
 20
624.912960
 30
0.0
  0
SPLINE
  5
157
100
AcDbEntity
  8
Layer_1
 62
7
100
AcDbSpline
 70
8
 71
3
 72
8
 73
4
 74
0
 40
0
 40
0
 40
0
 40
0
 40
1
 40
1
 40
1
 40
1
 10
239.578583
 20
624.912960
 30
0.0
 10
239.911190
 20
625.105047
 30
0.0
 10
240.116083
 20
625.459853
 30
0.0
 10
240.116083
 20
625.844027
 30
0.0
  0
LWPOLYLINE
  5
158
100
AcDbEntity
  8
Layer_1
 62
7
100
AcDbPolyline
 90
4
 70
1
 10
153.691427
 20
553.403424
 30
0.0
 10
166.391395
 20
553.403424
 30
0.0
 10
166.391395
 20
583.403115
 30
0.0
 10
153.691427
 20
583.403115
 30
0.0
  0
LWPOLYLINE
  5
159
100
AcDbEntity
  8
Layer_1
 62
7
100
AcDbPolyline
 90
4
 70
1
 10
-14.307959
 20
533.665824
 30
0.0
 10
-14.307959
 20
513.928487
 30
0.0
 10
-7.957974
 20
513.928487
 30
0.0
 10
-7.957974
 20
533.665824
 30
0.0
  0
LWPOLYLINE
  5
15a
100
AcDbEntity
  8
Layer_1
 62
7
100
AcDbPolyline
 90
20
 70
1
 10
67.041741
 20
583.403115
 30
0.0
 10
54.341799
 20
583.403115
 30
0.0
 10
54.341799
 20
553.403424
 30
0.0
 10
67.041741
 20
553.403424
 30
0.0
 10
67.041741
 20
533.665824
 30
0.0
 10
54.341799
 20
533.665824
 30
0.0
 10
54.341799
 20
513.928487
 30
0.0
 10
139.641477
 20
513.928487
 30
0.0
 10
139.641477
 20
533.665824
 30
0.0
 10
133.291493
 20
533.665824
 30
0.0
 10
133.291493
 20
553.403424
 30
0.0
 10
139.641477
 20
553.403424
 30
0.0
 10
139.641477
 20
583.403115
 30
0.0
 10
133.291493
 20
583.403115
 30
0.0
 10
133.291493
 20
603.140716
 30
0.0
 10
139.641477
 20
603.140716
 30
0.0
 10
139.641477
 20
622.878052
 30
0.0
 10
54.341799
 20
622.878052
 30
0.0
 10
54.341799
 20
603.140716
 30
0.0
 10
67.041741
 20
603.140716
 30
0.0
  0
LWPOLYLINE
  5
15b
100
AcDbEntity
  8
Layer_1
 62
7
100
AcDbPolyline
 90
4
 70
1
 10
272.540981
 20
553.403424
 30
0.0
 10
278.890939
 20
553.403424
 30
0.0
 10
278.890939
 20
583.403115
 30
0.0
 10
272.540981
 20
583.403115
 30
0.0
  0
LWPOLYLINE
  5
15c
100
AcDbEntity
  8
Layer_1
 62
7
100
AcDbPolyline
 90
4
 70
1
 10
166.391395
 20
513.928487
 30
0.0
 10
166.391395
 20
533.665824
 30
0.0
 10
153.691427
 20
533.665824
 30
0.0
 10
153.691427
 20
513.928487
 30
0.0
  0
SPLINE
  5
15d
100
AcDbEntity
  8
Layer_1
 62
7
100
AcDbSpline
 70
8
 71
3
 72
8
 73
4
 74
0
 40
0
 40
0
 40
0
 40
0
 40
1
 40
1
 40
1
 40
1
 10
181.271310
 20
473.128770
 30
0.0
 10
181.271310
 20
470.753876
 30
0.0
 10
183.196493
 20
468.828772
 30
0.0
 10
185.571308
 20
468.828772
 30
0.0
  0
LWPOLYLINE
  5
15e
100
AcDbEntity
  8
Layer_1
 62
7
100
AcDbPolyline
 90
4
 70
1
 10
278.890939
 20
513.928487
 30
0.0
 10
278.890939
 20
533.665824
 30
0.0
 10
272.540981
 20
533.665824
 30
0.0
 10
272.540981
 20
513.928487
 30
0.0
  0
SPLINE
  5
15f
100
AcDbEntity
  8
Layer_1
 62
7
100
AcDbSpline
 70
8
 71
3
 72
8
 73
4
 74
0
 40
0
 40
0
 40
0
 40
0
 40
1
 40
1
 40
1
 40
1
 10
191.911264
 20
468.828772
 30
0.0
 10
194.286079
 20
468.828772
 30
0.0
 10
196.211262
 20
470.753876
 30
0.0
 10
196.211262
 20
473.128770
 30
0.0
  0
LWPOLYLINE
  5
160
100
AcDbEntity
  8
Layer_1
 62
7
100
AcDbPolyline
 90
20
 70
1
 10
82.041697
 20
492.578505
 30
0.0
 10
-27.007898
 20
492.578505
 30
0.0
 10
-27.007898
 20
644.228021
 30
0.0
 10
82.041697
 20
644.228021
 30
0.0
 10
82.041697
 20
637.878056
 30
0.0
 10
118.291561
 20
637.878056
 30
0.0
 10
118.291561
 20
644.228021
 30
0.0
 10
186.391304
 20
644.228021
 30
0.0
 10
186.391304
 20
637.878056
 30
0.0
 10
252.541044
 20
637.878056
 30
0.0
 10
252.541044
 20
644.228021
 30
0.0
 10
291.590909
 20
644.228021
 30
0.0
 10
291.590909
 20
492.578505
 30
0.0
 10
252.541044
 20
492.578505
 30
0.0
 10
252.541044
 20
498.928489
 30
0.0
 10
186.391304
 20
498.928489
 30
0.0
 10
186.391304
 20
492.578505
 30
0.0
 10
118.291561
 20
492.578505
 30
0.0
 10
118.291561
 20
498.928489
 30
0.0
 10
82.041697
 20
498.928489
 30
0.0
  0
SPLINE
  5
161
100
AcDbEntity
  8
Layer_1
 62
7
100
AcDbSpline
 70
8
 71
3
 72
8
 73
4
 74
0
 40
0
 40
0
 40
0
 40
0
 40
1
 40
1
 40
1
 40
1
 10
196.211262
 20
473.688625
 30
0.0
 10
196.211262
 20
476.063519
 30
0.0
 10
194.286079
 20
477.988623
 30
0.0
 10
191.911264
 20
477.988623
 30
0.0
  0
LWPOLYLINE
  5
162
100
AcDbEntity
  8
Layer_1
 62
7
100
AcDbPolyline
 90
2
 70
0
 10
181.271310
 20
473.688625
 30
0.0
 10
181.271310
 20
473.128770
 30
0.0
  0
SPLINE
  5
163
100
AcDbEntity
  8
Layer_1
 62
7
100
AcDbSpline
 70
8
 71
3
 72
8
 73
4
 74
0
 40
0
 40
0
 40
0
 40
0
 40
1
 40
1
 40
1
 40
1
 10
185.571308
 20
477.988623
 30
0.0
 10
183.196493
 20
477.988623
 30
0.0
 10
181.271310
 20
476.063519
 30
0.0
 10
181.271310
 20
473.688625
 30
0.0
  0
LWPOLYLINE
  5
164
100
AcDbEntity
  8
Layer_1
 62
7
100
AcDbPolyline
 90
2
 70
0
 10
185.571308
 20
468.828772
 30
0.0
 10
191.911264
 20
468.828772
 30
0.0
  0
SPLINE
  5
165
100
AcDbEntity
  8
Layer_1
 62
7
100
AcDbSpline
 70
8
 71
3
 72
8
 73
4
 74
0
 40
0
 40
0
 40
0
 40
0
 40
1
 40
1
 40
1
 40
1
 10
205.696737
 20
477.988623
 30
0.0
 10
206.643651
 20
477.988623
 30
0.0
 10
207.548948
 20
477.599421
 30
0.0
 10
208.200431
 20
476.912302
 30
0.0
  0
SPLINE
  5
166
100
AcDbEntity
  8
Layer_1
 62
7
100
AcDbSpline
 70
8
 71
3
 72
8
 73
4
 74
0
 40
0
 40
0
 40
0
 40
0
 40
1
 40
1
 40
1
 40
1
 10
208.844899
 20
476.232588
 30
0.0
 10
209.452514
 20
475.591506
 30
0.0
 10
209.791207
 20
474.741930
 30
0.0
 10
209.791233
 20
473.858752
 30
0.0
  0
LWPOLYLINE
  5
167
100
AcDbEntity
  8
Layer_1
 62
7
100
AcDbPolyline
 90
2
 70
0
 10
196.211262
 20
473.128770
 30
0.0
 10
196.211262
 20
473.688625
 30
0.0
  0
SPLINE
  5
168
100
AcDbEntity
  8
Layer_1
 62
7
100
AcDbSpline
 70
8
 71
3
 72
8
 73
4
 74
0
 40
0
 40
0
 40
0
 40
0
 40
1
 40
1
 40
1
 40
1
 10
209.791233
 20
472.538750
 30
0.0
 10
209.791233
 20
471.623560
 30
0.0
 10
209.427749
 20
470.746203
 30
0.0
 10
208.780738
 20
470.099033
 30
0.0
  0
SPLINE
  5
169
100
AcDbEntity
  8
Layer_1
 62
7
100
AcDbSpline
 70
8
 71
3
 72
8
 73
4
 74
0
 40
0
 40
0
 40
0
 40
0
 40
1
 40
1
 40
1
 40
1
 10
208.780738
 20
470.099033
 30
0.0
 10
208.133756
 20
469.452127
 30
0.0
 10
207.256213
 20
469.088593
 30
0.0
 10
206.341232
 20
469.088593
 30
0.0
  0
LWPOLYLINE
  5
16a
100
AcDbEntity
  8
Layer_1
 62
7
100
AcDbPolyline
 90
2
 70
0
 10
191.911264
 20
477.988623
 30
0.0
 10
185.571308
 20
477.988623
 30
0.0
  0
SPLINE
  5
16b
100
AcDbEntity
  8
Layer_1
 62
7
100
AcDbSpline
 70
8
 71
3
 72
8
 73
4
 74
0
 40
0
 40
0
 40
0
 40
0
 40
1
 40
1
 40
1
 40
1
 10
200.741235
 20
469.088593
 30
0.0
 10
198.835870
 20
469.088593
 30
0.0
 10
197.291263
 20
470.633226
 30
0.0
 10
197.291263
 20
472.538750
 30
0.0
  0
LWPOLYLINE
  5
16c
100
AcDbEntity
  8
Layer_1
 62
7
100
AcDbPolyline
 90
2
 70
0
 10
208.200431
 20
476.912302
 30
0.0
 10
208.844899
 20
476.232588
 30
0.0
  0
SPLINE
  5
16d
100
AcDbEntity
  8
Layer_1
 62
7
100
AcDbSpline
 70
8
 71
3
 72
8
 73
4
 74
0
 40
0
 40
0
 40
0
 40
0
 40
1
 40
1
 40
1
 40
1
 10
197.291263
 20
473.858752
 30
0.0
 10
197.291263
 20
474.741930
 30
0.0
 10
197.629953
 20
475.591506
 30
0.0
 10
198.237568
 20
476.232588
 30
0.0
  0
LWPOLYLINE
  5
16e
100
AcDbEntity
  8
Layer_1
 62
7
100
AcDbPolyline
 90
2
 70
0
 10
209.791233
 20
473.858752
 30
0.0
 10
209.791233
 20
472.538750
 30
0.0
  0
SPLINE
  5
16f
100
AcDbEntity
  8
Layer_1
 62
7
100
AcDbSpline
 70
8
 71
3
 72
8
 73
4
 74
0
 40
0
 40
0
 40
0
 40
0
 40
1
 40
1
 40
1
 40
1
 10
198.882066
 20
476.912302
 30
0.0
 10
199.533546
 20
477.599421
 30
0.0
 10
200.438817
 20
477.988623
 30
0.0
 10
201.385733
 20
477.988623
 30
0.0
  0
LWPOLYLINE
  5
170
100
AcDbEntity
  8
Layer_1
 62
7
100
AcDbPolyline
 90
2
 70
0
 10
206.341232
 20
469.088593
 30
0.0
 10
200.741235
 20
469.088593
 30
0.0
  0
SPLINE
  5
171
100
AcDbEntity
  8
Layer_1
 62
7
100
AcDbSpline
 70
8
 71
3
 72
8
 73
4
 74
0
 40
0
 40
0
 40
0
 40
0
 40
1
 40
1
 40
1
 40
1
 10
171.546867
 20
459.390314
 30
0.0
 10
171.374041
 20
460.779374
 30
0.0
 10
172.203641
 20
462.097789
 30
0.0
 10
173.530575
 20
462.542818
 30
0.0
  0
SPLINE
  5
172
100
AcDbEntity
  8
Layer_1
 62
7
100
AcDbSpline
 70
8
 71
3
 72
8
 73
4
 74
0
 40
0
 40
0
 40
0
 40
0
 40
1
 40
1
 40
1
 40
1
 10
173.530575
 20
462.542818
 30
0.0
 10
174.857509
 20
462.988111
 30
0.0
 10
176.314382
 20
462.436720
 30
0.0
 10
177.014175
 20
461.224665
 30
0.0
  0
SPLINE
  5
173
100
AcDbEntity
  8
Layer_1
 62
7
100
AcDbSpline
 70
8
 71
3
 72
8
 73
4
 74
0
 40
0
 40
0
 40
0
 40
0
 40
1
 40
1
 40
1
 40
1
 10
177.014175
 20
461.224665
 30
0.0
 10
177.713997
 20
460.012613
 30
0.0
 10
177.462987
 20
458.475124
 30
0.0
 10
176.413942
 20
457.548554
 30
0.0
  0
SPLINE
  5
174
100
AcDbEntity
  8
Layer_1
 62
7
100
AcDbSpline
 70
8
 71
3
 72
8
 73
4
 74
0
 40
0
 40
0
 40
0
 40
0
 40
1
 40
1
 40
1
 40
1
 10
176.413942
 20
457.548554
 30
0.0
 10
175.364926
 20
456.622252
 30
0.0
 10
173.808361
 20
456.562985
 30
0.0
 10
172.691953
 20
457.407002
 30
0.0
  0
LWPOLYLINE
  5
175
100
AcDbEntity
  8
Layer_1
 62
7
100
AcDbPolyline
 90
2
 70
0
 10
197.291263
 20
472.538750
 30
0.0
 10
197.291263
 20
473.858752
 30
0.0
  0
SPLINE
  5
176
100
AcDbEntity
  8
Layer_1
 62
7
100
AcDbSpline
 70
8
 71
3
 72
8
 73
4
 74
0
 40
0
 40
0
 40
0
 40
0
 40
1
 40
1
 40
1
 40
1
 10
219.196696
 20
477.988623
 30
0.0
 10
220.143612
 20
477.988623
 30
0.0
 10
221.048883
 20
477.599421
 30
0.0
 10
221.700363
 20
476.912302
 30
0.0
  0
LWPOLYLINE
  5
177
100
AcDbEntity
  8
Layer_1
 62
7
100
AcDbPolyline
 90
2
 70
0
 10
198.237568
 20
476.232588
 30
0.0
 10
198.882066
 20
476.912302
 30
0.0
  0
SPLINE
  5
178
100
AcDbEntity
  8
Layer_1
 62
7
100
AcDbSpline
 70
8
 71
3
 72
8
 73
4
 74
0
 40
0
 40
0
 40
0
 40
0
 40
1
 40
1
 40
1
 40
1
 10
222.344834
 20
476.232588
 30
0.0
 10
222.952473
 20
475.591506
 30
0.0
 10
223.291165
 20
474.741930
 30
0.0
 10
223.291165
 20
473.858752
 30
0.0
  0
LWPOLYLINE
  5
179
100
AcDbEntity
  8
Layer_1
 62
7
100
AcDbPolyline
 90
2
 70
0
 10
201.385733
 20
477.988623
 30
0.0
 10
205.696737
 20
477.988623
 30
0.0
  0
SPLINE
  5
17a
100
AcDbEntity
  8
Layer_1
 62
7
100
AcDbSpline
 70
8
 71
3
 72
8
 73
4
 74
0
 40
0
 40
0
 40
0
 40
0
 40
1
 40
1
 40
1
 40
1
 10
223.291165
 20
472.538750
 30
0.0
 10
223.291165
 20
471.623560
 30
0.0
 10
222.927684
 20
470.746203
 30
0.0
 10
222.280699
 20
470.099033
 30
0.0
  0
SPLINE
  5
17b
100
AcDbEntity
  8
Layer_1
 62
7
100
AcDbSpline
 70
8
 71
3
 72
8
 73
4
 74
0
 40
0
 40
0
 40
0
 40
0
 40
1
 40
1
 40
1
 40
1
 10
222.280699
 20
470.099033
 30
0.0
 10
221.633688
 20
469.452127
 30
0.0
 10
220.756172
 20
469.088593
 30
0.0
 10
219.841167
 20
469.088593
 30
0.0
  0
LWPOLYLINE
  5
17c
100
AcDbEntity
  8
Layer_1
 62
7
100
AcDbPolyline
 90
2
 70
0
 10
172.691953
 20
457.407002
 30
0.0
 10
171.546867
 20
459.390314
 30
0.0
  0
SPLINE
  5
17d
100
AcDbEntity
  8
Layer_1
 62
7
100
AcDbSpline
 70
8
 71
3
 72
8
 73
4
 74
0
 40
0
 40
0
 40
0
 40
0
 40
1
 40
1
 40
1
 40
1
 10
214.241197
 20
469.088593
 30
0.0
 10
213.326216
 20
469.088593
 30
0.0
 10
212.448673
 20
469.452127
 30
0.0
 10
211.801691
 20
470.099033
 30
0.0
  0
SPLINE
  5
17e
100
AcDbEntity
  8
Layer_1
 62
7
100
AcDbSpline
 70
8
 71
3
 72
8
 73
4
 74
0
 40
0
 40
0
 40
0
 40
0
 40
1
 40
1
 40
1
 40
1
 10
211.801691
 20
470.099033
 30
0.0
 10
211.154680
 20
470.746203
 30
0.0
 10
210.791196
 20
471.623560
 30
0.0
 10
210.791196
 20
472.538750
 30
0.0
  0
LWPOLYLINE
  5
17f
100
AcDbEntity
  8
Layer_1
 62
7
100
AcDbPolyline
 90
2
 70
0
 10
221.700363
 20
476.912302
 30
0.0
 10
222.344834
 20
476.232588
 30
0.0
  0
SPLINE
  5
180
100
AcDbEntity
  8
Layer_1
 62
7
100
AcDbSpline
 70
8
 71
3
 72
8
 73
4
 74
0
 40
0
 40
0
 40
0
 40
0
 40
1
 40
1
 40
1
 40
1
 10
210.791196
 20
473.858752
 30
0.0
 10
210.791196
 20
474.741930
 30
0.0
 10
211.129888
 20
475.591506
 30
0.0
 10
211.737503
 20
476.232588
 30
0.0
  0
LWPOLYLINE
  5
181
100
AcDbEntity
  8
Layer_1
 62
7
100
AcDbPolyline
 90
2
 70
0
 10
223.291165
 20
473.858752
 30
0.0
 10
223.291165
 20
472.538750
 30
0.0
  0
SPLINE
  5
182
100
AcDbEntity
  8
Layer_1
 62
7
100
AcDbSpline
 70
8
 71
3
 72
8
 73
4
 74
0
 40
0
 40
0
 40
0
 40
0
 40
1
 40
1
 40
1
 40
1
 10
212.381998
 20
476.912302
 30
0.0
 10
213.033481
 20
477.599421
 30
0.0
 10
213.938778
 20
477.988623
 30
0.0
 10
214.885665
 20
477.988623
 30
0.0
  0
LWPOLYLINE
  5
183
100
AcDbEntity
  8
Layer_1
 62
7
100
AcDbPolyline
 90
2
 70
0
 10
219.841167
 20
469.088593
 30
0.0
 10
214.241197
 20
469.088593
 30
0.0
  0
LWPOLYLINE
  5
184
100
AcDbEntity
  8
Layer_1
 62
7
100
AcDbPolyline
 90
2
 70
0
 10
210.791196
 20
472.538750
 30
0.0
 10
210.791196
 20
473.858752
 30
0.0
  0
LWPOLYLINE
  5
185
100
AcDbEntity
  8
Layer_1
 62
7
100
AcDbPolyline
 90
2
 70
0
 10
211.737503
 20
476.232588
 30
0.0
 10
212.381998
 20
476.912302
 30
0.0
  0
LWPOLYLINE
  5
186
100
AcDbEntity
  8
Layer_1
 62
7
100
AcDbPolyline
 90
2
 70
0
 10
214.885665
 20
477.988623
 30
0.0
 10
219.196696
 20
477.988623
 30
0.0
  0
LWPOLYLINE
  5
187
100
AcDbEntity
  8
Layer_1
 62
7
100
AcDbPolyline
 90
68
 70
1
 10
177.891321
 20
478.528637
 30
0.0
 10
177.891321
 20
482.578603
 30
0.0
 10
186.391304
 20
482.578603
 30
0.0
 10
186.391304
 20
488.928587
 30
0.0
 10
252.541044
 20
488.928587
 30
0.0
 10
252.541044
 20
482.578603
 30
0.0
 10
261.041000
 20
482.578603
 30
0.0
 10
261.041000
 20
478.528637
 30
0.0
 10
259.891019
 20
478.528637
 30
0.0
 10
259.891019
 20
476.428644
 30
0.0
 10
265.191006
 20
476.428644
 30
0.0
 10
265.191006
 20
478.528637
 30
0.0
 10
264.040998
 20
478.528637
 30
0.0
 10
264.040998
 20
482.578603
 30
0.0
 10
291.590909
 20
482.578603
 30
0.0
 10
291.590909
 20
440.278714
 30
0.0
 10
264.040998
 20
440.278714
 30
0.0
 10
264.040998
 20
444.328680
 30
0.0
 10
265.191006
 20
444.328680
 30
0.0
 10
265.191006
 20
446.428676
 30
0.0
 10
259.891019
 20
446.428676
 30
0.0
 10
259.891019
 20
444.328680
 30
0.0
 10
261.041000
 20
444.328680
 30
0.0
 10
261.041000
 20
440.278714
 30
0.0
 10
252.541044
 20
440.278714
 30
0.0
 10
252.541044
 20
433.928730
 30
0.0
 10
186.391304
 20
433.928730
 30
0.0
 10
186.391304
 20
440.278714
 30
0.0
 10
177.891321
 20
440.278714
 30
0.0
 10
177.891321
 20
444.328680
 30
0.0
 10
179.041328
 20
444.328680
 30
0.0
 10
179.041328
 20
446.428676
 30
0.0
 10
173.741342
 20
446.428676
 30
0.0
 10
173.741342
 20
444.328680
 30
0.0
 10
174.891323
 20
444.328680
 30
0.0
 10
174.891323
 20
440.278714
 30
0.0
 10
118.291561
 20
440.278714
 30
0.0
 10
118.291561
 20
433.928730
 30
0.0
 10
82.041697
 20
433.928730
 30
0.0
 10
82.041697
 20
440.278714
 30
0.0
 10
24.691898
 20
440.278714
 30
0.0
 10
24.691898
 20
444.328680
 30
0.0
 10
25.841906
 20
444.328680
 30
0.0
 10
25.841906
 20
446.428676
 30
0.0
 10
20.541919
 20
446.428676
 30
0.0
 10
20.541919
 20
444.328680
 30
0.0
 10
21.691927
 20
444.328680
 30
0.0
 10
21.691927
 20
440.278714
 30
0.0
 10
-27.007898
 20
440.278714
 30
0.0
 10
-27.007898
 20
482.578603
 30
0.0
 10
21.691927
 20
482.578603
 30
0.0
 10
21.691927
 20
478.528637
 30
0.0
 10
20.541919
 20
478.528637
 30
0.0
 10
20.541919
 20
476.428644
 30
0.0
 10
25.841906
 20
476.428644
 30
0.0
 10
25.841906
 20
478.528637
 30
0.0
 10
24.691898
 20
478.528637
 30
0.0
 10
24.691898
 20
482.578603
 30
0.0
 10
82.041697
 20
482.578603
 30
0.0
 10
82.041697
 20
488.928587
 30
0.0
 10
118.291561
 20
488.928587
 30
0.0
 10
118.291561
 20
482.578603
 30
0.0
 10
174.891323
 20
482.578603
 30
0.0
 10
174.891323
 20
478.528637
 30
0.0
 10
173.741342
 20
478.528637
 30
0.0
 10
173.741342
 20
476.428644
 30
0.0
 10
179.041328
 20
476.428644
 30
0.0
 10
179.041328
 20
478.528637
 30
0.0
  0
LWPOLYLINE
  5
188
100
AcDbEntity
  8
Layer_1
 62
7
100
AcDbPolyline
 90
4
 70
1
 10
278.890939
 20
469.928641
 30
0.0
 10
278.890939
 20
475.178757
 30
0.0
 10
272.540981
 20
475.178757
 30
0.0
 10
272.540981
 20
469.928641
 30
0.0
  0
LWPOLYLINE
  5
189
100
AcDbEntity
  8
Layer_1
 62
7
100
AcDbPolyline
 90
4
 70
1
 10
272.540981
 20
452.928676
 30
0.0
 10
272.540981
 20
447.678828
 30
0.0
 10
278.890939
 20
447.678828
 30
0.0
 10
278.890939
 20
452.928676
 30
0.0
  0
LWPOLYLINE
  5
18a
100
AcDbEntity
  8
Layer_1
 62
7
100
AcDbPolyline
 90
4
 70
1
 10
139.641477
 20
469.928641
 30
0.0
 10
139.641477
 20
475.178757
 30
0.0
 10
133.291493
 20
475.178757
 30
0.0
 10
133.291493
 20
469.928641
 30
0.0
  0
LWPOLYLINE
  5
18b
100
AcDbEntity
  8
Layer_1
 62
7
100
AcDbPolyline
 90
4
 70
1
 10
67.041741
 20
469.928641
 30
0.0
 10
67.041741
 20
475.178757
 30
0.0
 10
54.341799
 20
475.178757
 30
0.0
 10
54.341799
 20
469.928641
 30
0.0
  0
LWPOLYLINE
  5
18c
100
AcDbEntity
  8
Layer_1
 62
7
100
AcDbPolyline
 90
4
 70
1
 10
-14.307959
 20
452.928676
 30
0.0
 10
-14.307959
 20
447.678828
 30
0.0
 10
-7.957974
 20
447.678828
 30
0.0
 10
-7.957974
 20
452.928676
 30
0.0
  0
LWPOLYLINE
  5
18d
100
AcDbEntity
  8
Layer_1
 62
7
100
AcDbPolyline
 90
4
 70
1
 10
153.691427
 20
452.928676
 30
0.0
 10
153.691427
 20
447.678828
 30
0.0
 10
166.391395
 20
447.678828
 30
0.0
 10
166.391395
 20
452.928676
 30
0.0
  0
LWPOLYLINE
  5
18e
100
AcDbEntity
  8
Layer_1
 62
7
100
AcDbPolyline
 90
4
 70
1
 10
166.391395
 20
469.928641
 30
0.0
 10
166.391395
 20
475.178757
 30
0.0
 10
153.691427
 20
475.178757
 30
0.0
 10
153.691427
 20
469.928641
 30
0.0
  0
SPLINE
  5
18f
100
AcDbEntity
  8
Layer_1
 62
7
100
AcDbSpline
 70
8
 71
3
 72
8
 73
4
 74
0
 40
0
 40
0
 40
0
 40
0
 40
1
 40
1
 40
1
 40
1
 10
-9.632968
 20
461.428659
 30
0.0
 10
-9.632968
 20
461.964968
 30
0.0
 10
-9.918374
 20
462.460532
 30
0.0
 10
-10.382635
 20
462.728555
 30
0.0
  0
SPLINE
  5
190
100
AcDbEntity
  8
Layer_1
 62
7
100
AcDbSpline
 70
8
 71
3
 72
8
 73
4
 74
0
 40
0
 40
0
 40
0
 40
0
 40
1
 40
1
 40
1
 40
1
 10
-10.382635
 20
462.728555
 30
0.0
 10
-10.846898
 20
462.996842
 30
0.0
 10
-11.419006
 20
462.996842
 30
0.0
 10
-11.883270
 20
462.728555
 30
0.0
  0
SPLINE
  5
191
100
AcDbEntity
  8
Layer_1
 62
7
100
AcDbSpline
 70
8
 71
3
 72
8
 73
4
 74
0
 40
0
 40
0
 40
0
 40
0
 40
1
 40
1
 40
1
 40
1
 10
-11.883270
 20
462.728555
 30
0.0
 10
-12.347534
 20
462.460532
 30
0.0
 10
-12.633336
 20
461.964968
 30
0.0
 10
-12.632940
 20
461.428659
 30
0.0
  0
SPLINE
  5
192
100
AcDbEntity
  8
Layer_1
 62
7
100
AcDbSpline
 70
8
 71
3
 72
8
 73
4
 74
0
 40
0
 40
0
 40
0
 40
0
 40
1
 40
1
 40
1
 40
1
 10
-12.632940
 20
461.428659
 30
0.0
 10
-12.632940
 20
460.892613
 30
0.0
 10
-12.347534
 20
460.397052
 30
0.0
 10
-11.883270
 20
460.128765
 30
0.0
  0
SPLINE
  5
193
100
AcDbEntity
  8
Layer_1
 62
7
100
AcDbSpline
 70
8
 71
3
 72
8
 73
4
 74
0
 40
0
 40
0
 40
0
 40
0
 40
1
 40
1
 40
1
 40
1
 10
-11.883270
 20
460.128765
 30
0.0
 10
-11.419006
 20
459.860478
 30
0.0
 10
-10.846898
 20
459.860478
 30
0.0
 10
-10.382635
 20
460.128765
 30
0.0
  0
SPLINE
  5
194
100
AcDbEntity
  8
Layer_1
 62
7
100
AcDbSpline
 70
8
 71
3
 72
8
 73
4
 74
0
 40
0
 40
0
 40
0
 40
0
 40
1
 40
1
 40
1
 40
1
 10
-10.382635
 20
460.128765
 30
0.0
 10
-9.918374
 20
460.397052
 30
0.0
 10
-9.632571
 20
460.892613
 30
0.0
 10
-9.632968
 20
461.428659
 30
0.0
  0
LWPOLYLINE
  5
195
100
AcDbEntity
  8
Layer_1
 62
7
100
AcDbPolyline
 90
4
 70
1
 10
54.341799
 20
452.928676
 30
0.0
 10
54.341799
 20
447.678828
 30
0.0
 10
67.041741
 20
447.678828
 30
0.0
 10
67.041741
 20
452.928676
 30
0.0
  0
SPLINE
  5
196
100
AcDbEntity
  8
Layer_1
 62
7
100
AcDbSpline
 70
8
 71
3
 72
8
 73
4
 74
0
 40
0
 40
0
 40
0
 40
0
 40
1
 40
1
 40
1
 40
1
 10
277.215946
 20
461.428659
 30
0.0
 10
277.215946
 20
461.964704
 30
0.0
 10
276.930064
 20
462.459738
 30
0.0
 10
276.465959
 20
462.727761
 30
0.0
  0
SPLINE
  5
197
100
AcDbEntity
  8
Layer_1
 62
7
100
AcDbSpline
 70
8
 71
3
 72
8
 73
4
 74
0
 40
0
 40
0
 40
0
 40
0
 40
1
 40
1
 40
1
 40
1
 10
276.465959
 20
462.727761
 30
0.0
 10
276.001854
 20
462.995784
 30
0.0
 10
275.430066
 20
462.995784
 30
0.0
 10
274.965961
 20
462.727761
 30
0.0
  0
SPLINE
  5
198
100
AcDbEntity
  8
Layer_1
 62
7
100
AcDbSpline
 70
8
 71
3
 72
8
 73
4
 74
0
 40
0
 40
0
 40
0
 40
0
 40
1
 40
1
 40
1
 40
1
 10
274.965961
 20
462.727761
 30
0.0
 10
274.501856
 20
462.459738
 30
0.0
 10
274.215948
 20
461.964704
 30
0.0
 10
274.215948
 20
461.428659
 30
0.0
  0
SPLINE
  5
199
100
AcDbEntity
  8
Layer_1
 62
7
100
AcDbSpline
 70
8
 71
3
 72
8
 73
4
 74
0
 40
0
 40
0
 40
0
 40
0
 40
1
 40
1
 40
1
 40
1
 10
274.215948
 20
461.428659
 30
0.0
 10
274.215948
 20
460.892881
 30
0.0
 10
274.501856
 20
460.397581
 30
0.0
 10
274.965961
 20
460.129559
 30
0.0
  0
SPLINE
  5
19a
100
AcDbEntity
  8
Layer_1
 62
7
100
AcDbSpline
 70
8
 71
3
 72
8
 73
4
 74
0
 40
0
 40
0
 40
0
 40
0
 40
1
 40
1
 40
1
 40
1
 10
274.965961
 20
460.129559
 30
0.0
 10
275.430066
 20
459.861801
 30
0.0
 10
276.001854
 20
459.861801
 30
0.0
 10
276.465959
 20
460.129559
 30
0.0
  0
SPLINE
  5
19b
100
AcDbEntity
  8
Layer_1
 62
7
100
AcDbSpline
 70
8
 71
3
 72
8
 73
4
 74
0
 40
0
 40
0
 40
0
 40
0
 40
1
 40
1
 40
1
 40
1
 10
276.465959
 20
460.129559
 30
0.0
 10
276.930064
 20
460.397581
 30
0.0
 10
277.215946
 20
460.892881
 30
0.0
 10
277.215946
 20
461.428659
 30
0.0
  0
SPLINE
  5
19c
100
AcDbEntity
  8
Layer_1
 62
7
100
AcDbSpline
 70
8
 71
3
 72
8
 73
4
 74
0
 40
0
 40
0
 40
0
 40
0
 40
1
 40
1
 40
1
 40
1
 10
17.836931
 20
461.428659
 30
0.0
 10
17.836931
 20
465.285480
 30
0.0
 10
15.779431
 20
468.849145
 30
0.0
 10
12.439445
 20
470.777424
 30
0.0
  0
SPLINE
  5
19d
100
AcDbEntity
  8
Layer_1
 62
7
100
AcDbSpline
 70
8
 71
3
 72
8
 73
4
 74
0
 40
0
 40
0
 40
0
 40
0
 40
1
 40
1
 40
1
 40
1
 10
12.439445
 20
470.777424
 30
0.0
 10
9.099485
 20
472.705702
 30
0.0
 10
4.984458
 20
472.705702
 30
0.0
 10
1.644499
 20
470.777424
 30
0.0
  0
SPLINE
  5
19e
100
AcDbEntity
  8
Layer_1
 62
7
100
AcDbSpline
 70
8
 71
3
 72
8
 73
4
 74
0
 40
0
 40
0
 40
0
 40
0
 40
1
 40
1
 40
1
 40
1
 10
1.644499
 20
470.777424
 30
0.0
 10
-1.695487
 20
468.849145
 30
0.0
 10
-3.752988
 20
465.285480
 30
0.0
 10
-3.752988
 20
461.428659
 30
0.0
  0
SPLINE
  5
19f
100
AcDbEntity
  8
Layer_1
 62
7
100
AcDbSpline
 70
8
 71
3
 72
8
 73
4
 74
0
 40
0
 40
0
 40
0
 40
0
 40
1
 40
1
 40
1
 40
1
 10
-3.752988
 20
461.428659
 30
0.0
 10
-3.752988
 20
457.572102
 30
0.0
 10
-1.695487
 20
454.008439
 30
0.0
 10
1.644499
 20
452.079896
 30
0.0
  0
SPLINE
  5
1a0
100
AcDbEntity
  8
Layer_1
 62
7
100
AcDbSpline
 70
8
 71
3
 72
8
 73
4
 74
0
 40
0
 40
0
 40
0
 40
0
 40
1
 40
1
 40
1
 40
1
 10
1.644499
 20
452.079896
 30
0.0
 10
4.984458
 20
450.151618
 30
0.0
 10
9.099485
 20
450.151618
 30
0.0
 10
12.439445
 20
452.079896
 30
0.0
  0
SPLINE
  5
1a1
100
AcDbEntity
  8
Layer_1
 62
7
100
AcDbSpline
 70
8
 71
3
 72
8
 73
4
 74
0
 40
0
 40
0
 40
0
 40
0
 40
1
 40
1
 40
1
 40
1
 10
12.439445
 20
452.079896
 30
0.0
 10
15.779431
 20
454.008439
 30
0.0
 10
17.836931
 20
457.572102
 30
0.0
 10
17.836931
 20
461.428659
 30
0.0
  0
SPLINE
  5
1a2
100
AcDbEntity
  8
Layer_1
 62
7
100
AcDbSpline
 70
8
 71
3
 72
8
 73
4
 74
0
 40
0
 40
0
 40
0
 40
0
 40
1
 40
1
 40
1
 40
1
 10
50.136813
 20
461.428659
 30
0.0
 10
50.136813
 20
465.285480
 30
0.0
 10
48.079313
 20
468.849145
 30
0.0
 10
44.739325
 20
470.777424
 30
0.0
  0
SPLINE
  5
1a3
100
AcDbEntity
  8
Layer_1
 62
7
100
AcDbSpline
 70
8
 71
3
 72
8
 73
4
 74
0
 40
0
 40
0
 40
0
 40
0
 40
1
 40
1
 40
1
 40
1
 10
44.739325
 20
470.777424
 30
0.0
 10
41.399367
 20
472.705702
 30
0.0
 10
37.284339
 20
472.705702
 30
0.0
 10
33.944380
 20
470.777424
 30
0.0
  0
SPLINE
  5
1a4
100
AcDbEntity
  8
Layer_1
 62
7
100
AcDbSpline
 70
8
 71
3
 72
8
 73
4
 74
0
 40
0
 40
0
 40
0
 40
0
 40
1
 40
1
 40
1
 40
1
 10
33.944380
 20
470.777424
 30
0.0
 10
30.604394
 20
468.849145
 30
0.0
 10
28.546894
 20
465.285480
 30
0.0
 10
28.546894
 20
461.428659
 30
0.0
  0
SPLINE
  5
1a5
100
AcDbEntity
  8
Layer_1
 62
7
100
AcDbSpline
 70
8
 71
3
 72
8
 73
4
 74
0
 40
0
 40
0
 40
0
 40
0
 40
1
 40
1
 40
1
 40
1
 10
28.546894
 20
461.428659
 30
0.0
 10
28.546894
 20
457.572102
 30
0.0
 10
30.604394
 20
454.008439
 30
0.0
 10
33.944380
 20
452.079896
 30
0.0
  0
SPLINE
  5
1a6
100
AcDbEntity
  8
Layer_1
 62
7
100
AcDbSpline
 70
8
 71
3
 72
8
 73
4
 74
0
 40
0
 40
0
 40
0
 40
0
 40
1
 40
1
 40
1
 40
1
 10
33.944380
 20
452.079896
 30
0.0
 10
37.284339
 20
450.151618
 30
0.0
 10
41.399367
 20
450.151618
 30
0.0
 10
44.739325
 20
452.079896
 30
0.0
  0
SPLINE
  5
1a7
100
AcDbEntity
  8
Layer_1
 62
7
100
AcDbSpline
 70
8
 71
3
 72
8
 73
4
 74
0
 40
0
 40
0
 40
0
 40
0
 40
1
 40
1
 40
1
 40
1
 10
44.739325
 20
452.079896
 30
0.0
 10
48.079313
 20
454.008439
 30
0.0
 10
50.136813
 20
457.572102
 30
0.0
 10
50.136813
 20
461.428659
 30
0.0
  0
SPLINE
  5
1a8
100
AcDbEntity
  8
Layer_1
 62
7
100
AcDbSpline
 70
8
 71
3
 72
8
 73
4
 74
0
 40
0
 40
0
 40
0
 40
0
 40
1
 40
1
 40
1
 40
1
 10
177.891321
 20
281.804281
 30
0.0
 10
177.891321
 20
282.340326
 30
0.0
 10
177.605412
 20
282.835358
 30
0.0
 10
177.141334
 20
283.103381
 30
0.0
  0
SPLINE
  5
1a9
100
AcDbEntity
  8
Layer_1
 62
7
100
AcDbSpline
 70
8
 71
3
 72
8
 73
4
 74
0
 40
0
 40
0
 40
0
 40
0
 40
1
 40
1
 40
1
 40
1
 10
177.141334
 20
283.103381
 30
0.0
 10
176.677229
 20
283.371404
 30
0.0
 10
176.105415
 20
283.371404
 30
0.0
 10
175.641336
 20
283.103381
 30
0.0
  0
SPLINE
  5
1aa
100
AcDbEntity
  8
Layer_1
 62
7
100
AcDbSpline
 70
8
 71
3
 72
8
 73
4
 74
0
 40
0
 40
0
 40
0
 40
0
 40
1
 40
1
 40
1
 40
1
 10
175.641336
 20
283.103381
 30
0.0
 10
175.177231
 20
282.835358
 30
0.0
 10
174.891323
 20
282.340326
 30
0.0
 10
174.891323
 20
281.804281
 30
0.0
  0
SPLINE
  5
1ab
100
AcDbEntity
  8
Layer_1
 62
7
100
AcDbSpline
 70
8
 71
3
 72
8
 73
4
 74
0
 40
0
 40
0
 40
0
 40
0
 40
1
 40
1
 40
1
 40
1
 10
174.891323
 20
281.804281
 30
0.0
 10
174.891323
 20
281.268501
 30
0.0
 10
175.177231
 20
280.773201
 30
0.0
 10
175.641336
 20
280.505446
 30
0.0
  0
SPLINE
  5
1ac
100
AcDbEntity
  8
Layer_1
 62
7
100
AcDbSpline
 70
8
 71
3
 72
8
 73
4
 74
0
 40
0
 40
0
 40
0
 40
0
 40
1
 40
1
 40
1
 40
1
 10
175.641336
 20
280.505446
 30
0.0
 10
176.105415
 20
280.237423
 30
0.0
 10
176.677229
 20
280.237423
 30
0.0
 10
177.141334
 20
280.505446
 30
0.0
  0
SPLINE
  5
1ad
100
AcDbEntity
  8
Layer_1
 62
7
100
AcDbSpline
 70
8
 71
3
 72
8
 73
4
 74
0
 40
0
 40
0
 40
0
 40
0
 40
1
 40
1
 40
1
 40
1
 10
177.141334
 20
280.505446
 30
0.0
 10
177.605412
 20
280.773201
 30
0.0
 10
177.891321
 20
281.268501
 30
0.0
 10
177.891321
 20
281.804281
 30
0.0
  0
SPLINE
  5
1ae
100
AcDbEntity
  8
Layer_1
 62
7
100
AcDbSpline
 70
8
 71
3
 72
8
 73
4
 74
0
 40
0
 40
0
 40
0
 40
0
 40
1
 40
1
 40
1
 40
1
 10
24.691898
 20
281.804281
 30
0.0
 10
24.691898
 20
282.340588
 30
0.0
 10
24.406492
 20
282.836152
 30
0.0
 10
23.942229
 20
283.104439
 30
0.0
  0
SPLINE
  5
1af
100
AcDbEntity
  8
Layer_1
 62
7
100
AcDbSpline
 70
8
 71
3
 72
8
 73
4
 74
0
 40
0
 40
0
 40
0
 40
0
 40
1
 40
1
 40
1
 40
1
 10
23.942229
 20
283.104439
 30
0.0
 10
23.477966
 20
283.372462
 30
0.0
 10
22.905859
 20
283.372462
 30
0.0
 10
22.441596
 20
283.104439
 30
0.0
  0
SPLINE
  5
1b0
100
AcDbEntity
  8
Layer_1
 62
7
100
AcDbSpline
 70
8
 71
3
 72
8
 73
4
 74
0
 40
0
 40
0
 40
0
 40
0
 40
1
 40
1
 40
1
 40
1
 10
22.441596
 20
283.104439
 30
0.0
 10
21.977332
 20
282.836152
 30
0.0
 10
21.691531
 20
282.340588
 30
0.0
 10
21.691927
 20
281.804281
 30
0.0
  0
SPLINE
  5
1b1
100
AcDbEntity
  8
Layer_1
 62
7
100
AcDbSpline
 70
8
 71
3
 72
8
 73
4
 74
0
 40
0
 40
0
 40
0
 40
0
 40
1
 40
1
 40
1
 40
1
 10
21.691927
 20
281.804281
 30
0.0
 10
21.691927
 20
281.268236
 30
0.0
 10
21.977332
 20
280.772672
 30
0.0
 10
22.441596
 20
280.504385
 30
0.0
  0
SPLINE
  5
1b2
100
AcDbEntity
  8
Layer_1
 62
7
100
AcDbSpline
 70
8
 71
3
 72
8
 73
4
 74
0
 40
0
 40
0
 40
0
 40
0
 40
1
 40
1
 40
1
 40
1
 10
22.441596
 20
280.504385
 30
0.0
 10
22.905859
 20
280.236365
 30
0.0
 10
23.477966
 20
280.236365
 30
0.0
 10
23.942229
 20
280.504385
 30
0.0
  0
SPLINE
  5
1b3
100
AcDbEntity
  8
Layer_1
 62
7
100
AcDbSpline
 70
8
 71
3
 72
8
 73
4
 74
0
 40
0
 40
0
 40
0
 40
0
 40
1
 40
1
 40
1
 40
1
 10
23.942229
 20
280.504385
 30
0.0
 10
24.406492
 20
280.772672
 30
0.0
 10
24.692295
 20
281.268236
 30
0.0
 10
24.691898
 20
281.804281
 30
0.0
  0
SPLINE
  5
1b4
100
AcDbEntity
  8
Layer_1
 62
7
100
AcDbSpline
 70
8
 71
3
 72
8
 73
4
 74
0
 40
0
 40
0
 40
0
 40
0
 40
1
 40
1
 40
1
 40
1
 10
264.040998
 20
427.482705
 30
0.0
 10
264.040998
 20
428.018483
 30
0.0
 10
263.755090
 20
428.513782
 30
0.0
 10
263.290985
 20
428.781804
 30
0.0
  0
SPLINE
  5
1b5
100
AcDbEntity
  8
Layer_1
 62
7
100
AcDbSpline
 70
8
 71
3
 72
8
 73
4
 74
0
 40
0
 40
0
 40
0
 40
0
 40
1
 40
1
 40
1
 40
1
 10
263.290985
 20
428.781804
 30
0.0
 10
262.826909
 20
429.049827
 30
0.0
 10
262.255092
 20
429.049827
 30
0.0
 10
261.791013
 20
428.781804
 30
0.0
  0
SPLINE
  5
1b6
100
AcDbEntity
  8
Layer_1
 62
7
100
AcDbSpline
 70
8
 71
3
 72
8
 73
4
 74
0
 40
0
 40
0
 40
0
 40
0
 40
1
 40
1
 40
1
 40
1
 10
261.791013
 20
428.781804
 30
0.0
 10
261.326908
 20
428.513782
 30
0.0
 10
261.041000
 20
428.018483
 30
0.0
 10
261.041000
 20
427.482705
 30
0.0
  0
SPLINE
  5
1b7
100
AcDbEntity
  8
Layer_1
 62
7
100
AcDbSpline
 70
8
 71
3
 72
8
 73
4
 74
0
 40
0
 40
0
 40
0
 40
0
 40
1
 40
1
 40
1
 40
1
 10
261.041000
 20
427.482705
 30
0.0
 10
261.041000
 20
426.946924
 30
0.0
 10
261.326908
 20
426.451625
 30
0.0
 10
261.791013
 20
426.183602
 30
0.0
  0
SPLINE
  5
1b8
100
AcDbEntity
  8
Layer_1
 62
7
100
AcDbSpline
 70
8
 71
3
 72
8
 73
4
 74
0
 40
0
 40
0
 40
0
 40
0
 40
1
 40
1
 40
1
 40
1
 10
261.791013
 20
426.183602
 30
0.0
 10
262.255092
 20
425.915844
 30
0.0
 10
262.826909
 20
425.915844
 30
0.0
 10
263.290985
 20
426.183602
 30
0.0
  0
SPLINE
  5
1b9
100
AcDbEntity
  8
Layer_1
 62
7
100
AcDbSpline
 70
8
 71
3
 72
8
 73
4
 74
0
 40
0
 40
0
 40
0
 40
0
 40
1
 40
1
 40
1
 40
1
 10
263.290985
 20
426.183602
 30
0.0
 10
263.755090
 20
426.451625
 30
0.0
 10
264.040998
 20
426.946924
 30
0.0
 10
264.040998
 20
427.482705
 30
0.0
  0
SPLINE
  5
1ba
100
AcDbEntity
  8
Layer_1
 62
7
100
AcDbSpline
 70
8
 71
3
 72
8
 73
4
 74
0
 40
0
 40
0
 40
0
 40
0
 40
1
 40
1
 40
1
 40
1
 10
264.040998
 20
281.804281
 30
0.0
 10
264.040998
 20
282.340326
 30
0.0
 10
263.755090
 20
282.835358
 30
0.0
 10
263.290985
 20
283.103381
 30
0.0
  0
SPLINE
  5
1bb
100
AcDbEntity
  8
Layer_1
 62
7
100
AcDbSpline
 70
8
 71
3
 72
8
 73
4
 74
0
 40
0
 40
0
 40
0
 40
0
 40
1
 40
1
 40
1
 40
1
 10
263.290985
 20
283.103381
 30
0.0
 10
262.826909
 20
283.371404
 30
0.0
 10
262.255092
 20
283.371404
 30
0.0
 10
261.791013
 20
283.103381
 30
0.0
  0
SPLINE
  5
1bc
100
AcDbEntity
  8
Layer_1
 62
7
100
AcDbSpline
 70
8
 71
3
 72
8
 73
4
 74
0
 40
0
 40
0
 40
0
 40
0
 40
1
 40
1
 40
1
 40
1
 10
261.791013
 20
283.103381
 30
0.0
 10
261.326908
 20
282.835358
 30
0.0
 10
261.041000
 20
282.340326
 30
0.0
 10
261.041000
 20
281.804281
 30
0.0
  0
SPLINE
  5
1bd
100
AcDbEntity
  8
Layer_1
 62
7
100
AcDbSpline
 70
8
 71
3
 72
8
 73
4
 74
0
 40
0
 40
0
 40
0
 40
0
 40
1
 40
1
 40
1
 40
1
 10
261.041000
 20
281.804281
 30
0.0
 10
261.041000
 20
281.268501
 30
0.0
 10
261.326908
 20
280.773201
 30
0.0
 10
261.791013
 20
280.505446
 30
0.0
  0
SPLINE
  5
1be
100
AcDbEntity
  8
Layer_1
 62
7
100
AcDbSpline
 70
8
 71
3
 72
8
 73
4
 74
0
 40
0
 40
0
 40
0
 40
0
 40
1
 40
1
 40
1
 40
1
 10
261.791013
 20
280.505446
 30
0.0
 10
262.255092
 20
280.237423
 30
0.0
 10
262.826909
 20
280.237423
 30
0.0
 10
263.290985
 20
280.505446
 30
0.0
  0
SPLINE
  5
1bf
100
AcDbEntity
  8
Layer_1
 62
7
100
AcDbSpline
 70
8
 71
3
 72
8
 73
4
 74
0
 40
0
 40
0
 40
0
 40
0
 40
1
 40
1
 40
1
 40
1
 10
263.290985
 20
280.505446
 30
0.0
 10
263.755090
 20
280.773201
 30
0.0
 10
264.040998
 20
281.268501
 30
0.0
 10
264.040998
 20
281.804281
 30
0.0
  0
SPLINE
  5
1c0
100
AcDbEntity
  8
Layer_1
 62
7
100
AcDbSpline
 70
8
 71
3
 72
8
 73
4
 74
0
 40
0
 40
0
 40
0
 40
0
 40
1
 40
1
 40
1
 40
1
 10
24.691898
 20
427.482705
 30
0.0
 10
24.691898
 20
428.018747
 30
0.0
 10
24.406492
 20
428.514576
 30
0.0
 10
23.942229
 20
428.782598
 30
0.0
  0
SPLINE
  5
1c1
100
AcDbEntity
  8
Layer_1
 62
7
100
AcDbSpline
 70
8
 71
3
 72
8
 73
4
 74
0
 40
0
 40
0
 40
0
 40
0
 40
1
 40
1
 40
1
 40
1
 10
23.942229
 20
428.782598
 30
0.0
 10
23.477966
 20
429.050885
 30
0.0
 10
22.905859
 20
429.050885
 30
0.0
 10
22.441596
 20
428.782598
 30
0.0
  0
SPLINE
  5
1c2
100
AcDbEntity
  8
Layer_1
 62
7
100
AcDbSpline
 70
8
 71
3
 72
8
 73
4
 74
0
 40
0
 40
0
 40
0
 40
0
 40
1
 40
1
 40
1
 40
1
 10
22.441596
 20
428.782598
 30
0.0
 10
21.977332
 20
428.514576
 30
0.0
 10
21.691531
 20
428.018747
 30
0.0
 10
21.691927
 20
427.482705
 30
0.0
  0
SPLINE
  5
1c3
100
AcDbEntity
  8
Layer_1
 62
7
100
AcDbSpline
 70
8
 71
3
 72
8
 73
4
 74
0
 40
0
 40
0
 40
0
 40
0
 40
1
 40
1
 40
1
 40
1
 10
21.691927
 20
427.482705
 30
0.0
 10
21.691927
 20
426.946659
 30
0.0
 10
21.977332
 20
426.450831
 30
0.0
 10
22.441596
 20
426.182808
 30
0.0
  0
SPLINE
  5
1c4
100
AcDbEntity
  8
Layer_1
 62
7
100
AcDbSpline
 70
8
 71
3
 72
8
 73
4
 74
0
 40
0
 40
0
 40
0
 40
0
 40
1
 40
1
 40
1
 40
1
 10
22.441596
 20
426.182808
 30
0.0
 10
22.905859
 20
425.914521
 30
0.0
 10
23.477966
 20
425.914521
 30
0.0
 10
23.942229
 20
426.182808
 30
0.0
  0
SPLINE
  5
1c5
100
AcDbEntity
  8
Layer_1
 62
7
100
AcDbSpline
 70
8
 71
3
 72
8
 73
4
 74
0
 40
0
 40
0
 40
0
 40
0
 40
1
 40
1
 40
1
 40
1
 10
23.942229
 20
426.182808
 30
0.0
 10
24.406492
 20
426.450831
 30
0.0
 10
24.692295
 20
426.946659
 30
0.0
 10
24.691898
 20
427.482705
 30
0.0
  0
SPLINE
  5
1c6
100
AcDbEntity
  8
Layer_1
 62
7
100
AcDbSpline
 70
8
 71
3
 72
8
 73
4
 74
0
 40
0
 40
0
 40
0
 40
0
 40
1
 40
1
 40
1
 40
1
 10
177.891321
 20
427.482705
 30
0.0
 10
177.891321
 20
428.018483
 30
0.0
 10
177.605412
 20
428.513782
 30
0.0
 10
177.141334
 20
428.781804
 30
0.0
  0
SPLINE
  5
1c7
100
AcDbEntity
  8
Layer_1
 62
7
100
AcDbSpline
 70
8
 71
3
 72
8
 73
4
 74
0
 40
0
 40
0
 40
0
 40
0
 40
1
 40
1
 40
1
 40
1
 10
177.141334
 20
428.781804
 30
0.0
 10
176.677229
 20
429.049827
 30
0.0
 10
176.105415
 20
429.049827
 30
0.0
 10
175.641336
 20
428.781804
 30
0.0
  0
SPLINE
  5
1c8
100
AcDbEntity
  8
Layer_1
 62
7
100
AcDbSpline
 70
8
 71
3
 72
8
 73
4
 74
0
 40
0
 40
0
 40
0
 40
0
 40
1
 40
1
 40
1
 40
1
 10
175.641336
 20
428.781804
 30
0.0
 10
175.177231
 20
428.513782
 30
0.0
 10
174.891323
 20
428.018483
 30
0.0
 10
174.891323
 20
427.482705
 30
0.0
  0
SPLINE
  5
1c9
100
AcDbEntity
  8
Layer_1
 62
7
100
AcDbSpline
 70
8
 71
3
 72
8
 73
4
 74
0
 40
0
 40
0
 40
0
 40
0
 40
1
 40
1
 40
1
 40
1
 10
174.891323
 20
427.482705
 30
0.0
 10
174.891323
 20
426.946924
 30
0.0
 10
175.177231
 20
426.451625
 30
0.0
 10
175.641336
 20
426.183602
 30
0.0
  0
SPLINE
  5
1ca
100
AcDbEntity
  8
Layer_1
 62
7
100
AcDbSpline
 70
8
 71
3
 72
8
 73
4
 74
0
 40
0
 40
0
 40
0
 40
0
 40
1
 40
1
 40
1
 40
1
 10
175.641336
 20
426.183602
 30
0.0
 10
176.105415
 20
425.915844
 30
0.0
 10
176.677229
 20
425.915844
 30
0.0
 10
177.141334
 20
426.183602
 30
0.0
  0
SPLINE
  5
1cb
100
AcDbEntity
  8
Layer_1
 62
7
100
AcDbSpline
 70
8
 71
3
 72
8
 73
4
 74
0
 40
0
 40
0
 40
0
 40
0
 40
1
 40
1
 40
1
 40
1
 10
177.141334
 20
426.183602
 30
0.0
 10
177.605412
 20
426.451625
 30
0.0
 10
177.891321
 20
426.946924
 30
0.0
 10
177.891321
 20
427.482705
 30
0.0
  0
LWPOLYLINE
  5
1cc
100
AcDbEntity
  8
Layer_1
 62
7
100
AcDbPolyline
 90
4
 70
1
 10
133.291493
 20
452.928676
 30
0.0
 10
133.291493
 20
447.678828
 30
0.0
 10
139.641477
 20
447.678828
 30
0.0
 10
139.641477
 20
452.928676
 30
0.0
  0
LWPOLYLINE
  5
1cd
100
AcDbEntity
  8
Layer_1
 62
7
100
AcDbPolyline
 90
4
 70
1
 10
-7.957974
 20
469.928641
 30
0.0
 10
-7.957974
 20
475.178757
 30
0.0
 10
-14.307959
 20
475.178757
 30
0.0
 10
-14.307959
 20
469.928641
 30
0.0
  0
LWPOLYLINE
  5
1ce
100
AcDbEntity
  8
Layer_1
 62
7
100
AcDbPolyline
 90
4
 70
1
 10
-14.307959
 20
369.454168
 30
0.0
 10
-14.307959
 20
339.454200
 30
0.0
 10
-7.957974
 20
339.454200
 30
0.0
 10
-7.957974
 20
369.454168
 30
0.0
  0
LWPOLYLINE
  5
1cf
100
AcDbEntity
  8
Layer_1
 62
7
100
AcDbPolyline
 90
4
 70
1
 10
-14.307959
 20
319.716861
 30
0.0
 10
-14.307959
 20
299.979257
 30
0.0
 10
-7.957974
 20
299.979257
 30
0.0
 10
-7.957974
 20
319.716861
 30
0.0
  0
LWPOLYLINE
  5
1d0
100
AcDbEntity
  8
Layer_1
 62
7
100
AcDbPolyline
 90
4
 70
1
 10
-7.957974
 20
389.191507
 30
0.0
 10
-7.957974
 20
408.928843
 30
0.0
 10
-14.307959
 20
408.928843
 30
0.0
 10
-14.307959
 20
389.191507
 30
0.0
  0
LWPOLYLINE
  5
1d1
100
AcDbEntity
  8
Layer_1
 62
7
100
AcDbPolyline
 90
20
 70
1
 10
54.341799
 20
389.191507
 30
0.0
 10
67.041741
 20
389.191507
 30
0.0
 10
67.041741
 20
369.454168
 30
0.0
 10
54.341799
 20
369.454168
 30
0.0
 10
54.341799
 20
339.454200
 30
0.0
 10
67.041741
 20
339.454200
 30
0.0
 10
67.041741
 20
319.716861
 30
0.0
 10
54.341799
 20
319.716861
 30
0.0
 10
54.341799
 20
299.979257
 30
0.0
 10
139.641477
 20
299.979257
 30
0.0
 10
139.641477
 20
319.716861
 30
0.0
 10
133.291493
 20
319.716861
 30
0.0
 10
133.291493
 20
339.454200
 30
0.0
 10
139.641477
 20
339.454200
 30
0.0
 10
139.641477
 20
369.454168
 30
0.0
 10
133.291493
 20
369.454168
 30
0.0
 10
133.291493
 20
389.191507
 30
0.0
 10
139.641477
 20
389.191507
 30
0.0
 10
139.641477
 20
408.928843
 30
0.0
 10
54.341799
 20
408.928843
 30
0.0
  0
LWPOLYLINE
  5
1d2
100
AcDbEntity
  8
Layer_1
 62
7
100
AcDbPolyline
 90
4
 70
1
 10
278.890939
 20
389.191507
 30
0.0
 10
278.890939
 20
408.928843
 30
0.0
 10
272.540981
 20
408.928843
 30
0.0
 10
272.540981
 20
389.191507
 30
0.0
  0
LWPOLYLINE
  5
1d3
100
AcDbEntity
  8
Layer_1
 62
7
100
AcDbPolyline
 90
4
 70
1
 10
166.391395
 20
389.191507
 30
0.0
 10
166.391395
 20
408.928843
 30
0.0
 10
153.691427
 20
408.928843
 30
0.0
 10
153.691427
 20
389.191507
 30
0.0
  0
SPLINE
  5
1d4
100
AcDbEntity
  8
Layer_1
 62
7
100
AcDbSpline
 70
8
 71
3
 72
8
 73
4
 74
0
 40
0
 40
0
 40
0
 40
0
 40
1
 40
1
 40
1
 40
1
 10
221.291159
 20
387.512995
 30
0.0
 10
221.298038
 20
394.484217
 30
0.0
 10
217.583007
 20
400.928922
 30
0.0
 10
211.546845
 20
404.416650
 30
0.0
  0
SPLINE
  5
1d5
100
AcDbEntity
  8
Layer_1
 62
7
100
AcDbSpline
 70
8
 71
3
 72
8
 73
4
 74
0
 40
0
 40
0
 40
0
 40
0
 40
1
 40
1
 40
1
 40
1
 10
211.546845
 20
404.416650
 30
0.0
 10
205.510682
 20
407.904380
 30
0.0
 10
198.071810
 20
407.904380
 30
0.0
 10
192.035645
 20
404.416650
 30
0.0
  0
SPLINE
  5
1d6
100
AcDbEntity
  8
Layer_1
 62
7
100
AcDbSpline
 70
8
 71
3
 72
8
 73
4
 74
0
 40
0
 40
0
 40
0
 40
0
 40
1
 40
1
 40
1
 40
1
 10
192.035645
 20
404.416650
 30
0.0
 10
185.999483
 20
400.928922
 30
0.0
 10
182.284346
 20
394.484217
 30
0.0
 10
182.291331
 20
387.512995
 30
0.0
  0
SPLINE
  5
1d7
100
AcDbEntity
  8
Layer_1
 62
7
100
AcDbSpline
 70
8
 71
3
 72
8
 73
4
 74
0
 40
0
 40
0
 40
0
 40
0
 40
1
 40
1
 40
1
 40
1
 10
182.291331
 20
387.512995
 30
0.0
 10
182.284452
 20
380.541770
 30
0.0
 10
185.999483
 20
374.097065
 30
0.0
 10
192.035645
 20
370.609337
 30
0.0
  0
SPLINE
  5
1d8
100
AcDbEntity
  8
Layer_1
 62
7
100
AcDbSpline
 70
8
 71
3
 72
8
 73
4
 74
0
 40
0
 40
0
 40
0
 40
0
 40
1
 40
1
 40
1
 40
1
 10
192.035645
 20
370.609337
 30
0.0
 10
198.071810
 20
367.121607
 30
0.0
 10
205.510682
 20
367.121607
 30
0.0
 10
211.546845
 20
370.609337
 30
0.0
  0
SPLINE
  5
1d9
100
AcDbEntity
  8
Layer_1
 62
7
100
AcDbSpline
 70
8
 71
3
 72
8
 73
4
 74
0
 40
0
 40
0
 40
0
 40
0
 40
1
 40
1
 40
1
 40
1
 10
211.546845
 20
370.609337
 30
0.0
 10
217.583007
 20
374.097065
 30
0.0
 10
221.298144
 20
380.541770
 30
0.0
 10
221.291159
 20
387.512995
 30
0.0
  0
LWPOLYLINE
  5
1da
100
AcDbEntity
  8
Layer_1
 62
7
100
AcDbPolyline
 90
4
 70
1
 10
153.691427
 20
369.454168
 30
0.0
 10
153.691427
 20
339.454200
 30
0.0
 10
166.391395
 20
339.454200
 30
0.0
 10
166.391395
 20
369.454168
 30
0.0
  0
LWPOLYLINE
  5
1db
100
AcDbEntity
  8
Layer_1
 62
7
100
AcDbPolyline
 90
4
 70
1
 10
272.540981
 20
369.454168
 30
0.0
 10
272.540981
 20
339.454200
 30
0.0
 10
278.890939
 20
339.454200
 30
0.0
 10
278.890939
 20
369.454168
 30
0.0
  0
LWPOLYLINE
  5
1dc
100
AcDbEntity
  8
Layer_1
 62
7
100
AcDbPolyline
 90
4
 70
1
 10
153.691427
 20
319.716861
 30
0.0
 10
153.691427
 20
299.979257
 30
0.0
 10
166.391395
 20
299.979257
 30
0.0
 10
166.391395
 20
319.716861
 30
0.0
  0
SPLINE
  5
1dd
100
AcDbEntity
  8
Layer_1
 62
7
100
AcDbSpline
 70
8
 71
3
 72
8
 73
4
 74
0
 40
0
 40
0
 40
0
 40
0
 40
1
 40
1
 40
1
 40
1
 10
277.215946
 20
247.479442
 30
0.0
 10
277.215946
 20
248.015487
 30
0.0
 10
276.930064
 20
248.510521
 30
0.0
 10
276.465959
 20
248.778543
 30
0.0
  0
SPLINE
  5
1de
100
AcDbEntity
  8
Layer_1
 62
7
100
AcDbSpline
 70
8
 71
3
 72
8
 73
4
 74
0
 40
0
 40
0
 40
0
 40
0
 40
1
 40
1
 40
1
 40
1
 10
276.465959
 20
248.778543
 30
0.0
 10
276.001854
 20
249.046565
 30
0.0
 10
275.430066
 20
249.046565
 30
0.0
 10
274.965961
 20
248.778543
 30
0.0
  0
SPLINE
  5
1df
100
AcDbEntity
  8
Layer_1
 62
7
100
AcDbSpline
 70
8
 71
3
 72
8
 73
4
 74
0
 40
0
 40
0
 40
0
 40
0
 40
1
 40
1
 40
1
 40
1
 10
274.965961
 20
248.778543
 30
0.0
 10
274.501856
 20
248.510521
 30
0.0
 10
274.215948
 20
248.015487
 30
0.0
 10
274.215948
 20
247.479442
 30
0.0
  0
SPLINE
  5
1e0
100
AcDbEntity
  8
Layer_1
 62
7
100
AcDbSpline
 70
8
 71
3
 72
8
 73
4
 74
0
 40
0
 40
0
 40
0
 40
0
 40
1
 40
1
 40
1
 40
1
 10
274.215948
 20
247.479442
 30
0.0
 10
274.215948
 20
246.943662
 30
0.0
 10
274.501856
 20
246.448364
 30
0.0
 10
274.965961
 20
246.180341
 30
0.0
  0
SPLINE
  5
1e1
100
AcDbEntity
  8
Layer_1
 62
7
100
AcDbSpline
 70
8
 71
3
 72
8
 73
4
 74
0
 40
0
 40
0
 40
0
 40
0
 40
1
 40
1
 40
1
 40
1
 10
274.965961
 20
246.180341
 30
0.0
 10
275.430066
 20
245.912583
 30
0.0
 10
276.001854
 20
245.912583
 30
0.0
 10
276.465959
 20
246.180341
 30
0.0
  0
SPLINE
  5
1e2
100
AcDbEntity
  8
Layer_1
 62
7
100
AcDbSpline
 70
8
 71
3
 72
8
 73
4
 74
0
 40
0
 40
0
 40
0
 40
0
 40
1
 40
1
 40
1
 40
1
 10
276.465959
 20
246.180341
 30
0.0
 10
276.930064
 20
246.448364
 30
0.0
 10
277.215946
 20
246.943662
 30
0.0
 10
277.215946
 20
247.479442
 30
0.0
  0
LWPOLYLINE
  5
1e3
100
AcDbEntity
  8
Layer_1
 62
7
100
AcDbPolyline
 90
4
 70
1
 10
272.540981
 20
319.716861
 30
0.0
 10
272.540981
 20
299.979257
 30
0.0
 10
278.890939
 20
299.979257
 30
0.0
 10
278.890939
 20
319.716861
 30
0.0
  0
SPLINE
  5
1e4
100
AcDbEntity
  8
Layer_1
 62
7
100
AcDbSpline
 70
8
 71
3
 72
8
 73
4
 74
0
 40
0
 40
0
 40
0
 40
0
 40
1
 40
1
 40
1
 40
1
 10
-9.632968
 20
247.479442
 30
0.0
 10
-9.632968
 20
248.015752
 30
0.0
 10
-9.918374
 20
248.511315
 30
0.0
 10
-10.382635
 20
248.779337
 30
0.0
  0
SPLINE
  5
1e5
100
AcDbEntity
  8
Layer_1
 62
7
100
AcDbSpline
 70
8
 71
3
 72
8
 73
4
 74
0
 40
0
 40
0
 40
0
 40
0
 40
1
 40
1
 40
1
 40
1
 10
-10.382635
 20
248.779337
 30
0.0
 10
-10.846898
 20
249.047623
 30
0.0
 10
-11.419006
 20
249.047623
 30
0.0
 10
-11.883270
 20
248.779337
 30
0.0
  0
SPLINE
  5
1e6
100
AcDbEntity
  8
Layer_1
 62
7
100
AcDbSpline
 70
8
 71
3
 72
8
 73
4
 74
0
 40
0
 40
0
 40
0
 40
0
 40
1
 40
1
 40
1
 40
1
 10
-11.883270
 20
248.779337
 30
0.0
 10
-12.347534
 20
248.511315
 30
0.0
 10
-12.633336
 20
248.015752
 30
0.0
 10
-12.632940
 20
247.479442
 30
0.0
  0
SPLINE
  5
1e7
100
AcDbEntity
  8
Layer_1
 62
7
100
AcDbSpline
 70
8
 71
3
 72
8
 73
4
 74
0
 40
0
 40
0
 40
0
 40
0
 40
1
 40
1
 40
1
 40
1
 10
-12.632940
 20
247.479442
 30
0.0
 10
-12.632940
 20
246.943398
 30
0.0
 10
-12.347534
 20
246.447835
 30
0.0
 10
-11.883270
 20
246.179548
 30
0.0
  0
SPLINE
  5
1e8
100
AcDbEntity
  8
Layer_1
 62
7
100
AcDbSpline
 70
8
 71
3
 72
8
 73
4
 74
0
 40
0
 40
0
 40
0
 40
0
 40
1
 40
1
 40
1
 40
1
 10
-11.883270
 20
246.179548
 30
0.0
 10
-11.419006
 20
245.911260
 30
0.0
 10
-10.846898
 20
245.911260
 30
0.0
 10
-10.382635
 20
246.179548
 30
0.0
  0
SPLINE
  5
1e9
100
AcDbEntity
  8
Layer_1
 62
7
100
AcDbSpline
 70
8
 71
3
 72
8
 73
4
 74
0
 40
0
 40
0
 40
0
 40
0
 40
1
 40
1
 40
1
 40
1
 10
-10.382635
 20
246.179548
 30
0.0
 10
-9.918374
 20
246.447835
 30
0.0
 10
-9.632571
 20
246.943398
 30
0.0
 10
-9.632968
 20
247.479442
 30
0.0
  0
LWPOLYLINE
  5
1ea
100
AcDbEntity
  8
Layer_1
 62
7
100
AcDbPolyline
 90
20
 70
1
 10
-27.007898
 20
278.629288
 30
0.0
 10
-27.007898
 20
430.278812
 30
0.0
 10
82.041697
 20
430.278812
 30
0.0
 10
82.041697
 20
423.928828
 30
0.0
 10
118.291561
 20
423.928828
 30
0.0
 10
118.291561
 20
430.278812
 30
0.0
 10
186.391304
 20
430.278812
 30
0.0
 10
186.391304
 20
423.928828
 30
0.0
 10
252.541044
 20
423.928828
 30
0.0
 10
252.541044
 20
430.278812
 30
0.0
 10
291.590909
 20
430.278812
 30
0.0
 10
291.590909
 20
278.629288
 30
0.0
 10
252.541044
 20
278.629288
 30
0.0
 10
252.541044
 20
284.979272
 30
0.0
 10
186.391304
 20
284.979272
 30
0.0
 10
186.391304
 20
278.629288
 30
0.0
 10
118.291561
 20
278.629288
 30
0.0
 10
118.291561
 20
284.979272
 30
0.0
 10
82.041697
 20
284.979272
 30
0.0
 10
82.041697
 20
278.629288
 30
0.0
  0
LWPOLYLINE
  5
1eb
100
AcDbEntity
  8
Layer_1
 62
7
100
AcDbPolyline
 90
68
 70
1
 10
177.891321
 20
226.329498
 30
0.0
 10
177.891321
 20
230.379465
 30
0.0
 10
179.041328
 20
230.379465
 30
0.0
 10
179.041328
 20
232.479457
 30
0.0
 10
173.741342
 20
232.479457
 30
0.0
 10
173.741342
 20
230.379465
 30
0.0
 10
174.891323
 20
230.379465
 30
0.0
 10
174.891323
 20
226.329498
 30
0.0
 10
118.291561
 20
226.329498
 30
0.0
 10
118.291561
 20
219.979514
 30
0.0
 10
82.041697
 20
219.979514
 30
0.0
 10
82.041697
 20
226.329498
 30
0.0
 10
24.691898
 20
226.329498
 30
0.0
 10
24.691898
 20
230.379465
 30
0.0
 10
25.841906
 20
230.379465
 30
0.0
 10
25.841906
 20
232.479457
 30
0.0
 10
20.541919
 20
232.479457
 30
0.0
 10
20.541919
 20
230.379465
 30
0.0
 10
21.691927
 20
230.379465
 30
0.0
 10
21.691927
 20
226.329498
 30
0.0
 10
-27.007898
 20
226.329498
 30
0.0
 10
-27.007898
 20
268.629386
 30
0.0
 10
21.691927
 20
268.629386
 30
0.0
 10
21.691927
 20
264.579420
 30
0.0
 10
20.541919
 20
264.579420
 30
0.0
 10
20.541919
 20
262.479427
 30
0.0
 10
25.841906
 20
262.479427
 30
0.0
 10
25.841906
 20
264.579420
 30
0.0
 10
24.691898
 20
264.579420
 30
0.0
 10
24.691898
 20
268.629386
 30
0.0
 10
82.041697
 20
268.629386
 30
0.0
 10
82.041697
 20
274.979371
 30
0.0
 10
118.291561
 20
274.979371
 30
0.0
 10
118.291561
 20
268.629386
 30
0.0
 10
174.803825
 20
268.629386
 30
0.0
 10
174.803825
 20
264.579420
 30
0.0
 10
173.741342
 20
264.579420
 30
0.0
 10
173.741342
 20
262.479427
 30
0.0
 10
179.041328
 20
262.479427
 30
0.0
 10
179.041328
 20
264.579420
 30
0.0
 10
177.891321
 20
264.579420
 30
0.0
 10
177.891321
 20
268.629386
 30
0.0
 10
186.391304
 20
268.629386
 30
0.0
 10
186.391304
 20
274.979371
 30
0.0
 10
252.541044
 20
274.979371
 30
0.0
 10
252.541044
 20
268.629386
 30
0.0
 10
261.041000
 20
268.629386
 30
0.0
 10
261.041000
 20
264.579420
 30
0.0
 10
259.891019
 20
264.579420
 30
0.0
 10
259.891019
 20
262.479427
 30
0.0
 10
265.191006
 20
262.479427
 30
0.0
 10
265.191006
 20
264.579420
 30
0.0
 10
264.040998
 20
264.579420
 30
0.0
 10
264.040998
 20
268.629386
 30
0.0
 10
291.590909
 20
268.629386
 30
0.0
 10
291.590909
 20
226.329498
 30
0.0
 10
264.040998
 20
226.329498
 30
0.0
 10
264.040998
 20
230.379465
 30
0.0
 10
265.191006
 20
230.379465
 30
0.0
 10
265.191006
 20
232.479457
 30
0.0
 10
259.891019
 20
232.479457
 30
0.0
 10
259.891019
 20
230.379465
 30
0.0
 10
261.041000
 20
230.379465
 30
0.0
 10
261.041000
 20
226.329498
 30
0.0
 10
252.541044
 20
226.329498
 30
0.0
 10
252.541044
 20
219.979514
 30
0.0
 10
186.391304
 20
219.979514
 30
0.0
 10
186.391304
 20
226.329498
 30
0.0
  0
LWPOLYLINE
  5
1ec
100
AcDbEntity
  8
Layer_1
 62
7
100
AcDbPolyline
 90
4
 70
1
 10
133.291493
 20
238.979459
 30
0.0
 10
133.291493
 20
233.729611
 30
0.0
 10
139.641477
 20
233.729611
 30
0.0
 10
139.641477
 20
238.979459
 30
0.0
  0
LWPOLYLINE
  5
1ed
100
AcDbEntity
  8
Layer_1
 62
7
100
AcDbPolyline
 90
4
 70
1
 10
67.041741
 20
255.979425
 30
0.0
 10
67.041741
 20
261.229539
 30
0.0
 10
54.341799
 20
261.229539
 30
0.0
 10
54.341799
 20
255.979425
 30
0.0
  0
LWPOLYLINE
  5
1ee
100
AcDbEntity
  8
Layer_1
 62
7
100
AcDbPolyline
 90
4
 70
1
 10
139.641477
 20
255.979425
 30
0.0
 10
139.641477
 20
261.229539
 30
0.0
 10
133.291493
 20
261.229539
 30
0.0
 10
133.291493
 20
255.979425
 30
0.0
  0
LWPOLYLINE
  5
1ef
100
AcDbEntity
  8
Layer_1
 62
7
100
AcDbPolyline
 90
4
 70
1
 10
-7.957974
 20
255.979425
 30
0.0
 10
-7.957974
 20
261.229539
 30
0.0
 10
-14.307959
 20
261.229539
 30
0.0
 10
-14.307959
 20
255.979425
 30
0.0
  0
LWPOLYLINE
  5
1f0
100
AcDbEntity
  8
Layer_1
 62
7
100
AcDbPolyline
 90
4
 70
1
 10
166.391395
 20
255.979425
 30
0.0
 10
166.391395
 20
261.229539
 30
0.0
 10
153.691427
 20
261.229539
 30
0.0
 10
153.691427
 20
255.979425
 30
0.0
  0
LWPOLYLINE
  5
1f1
100
AcDbEntity
  8
Layer_1
 62
7
100
AcDbPolyline
 90
4
 70
1
 10
153.691427
 20
238.979459
 30
0.0
 10
153.691427
 20
233.729611
 30
0.0
 10
166.391395
 20
233.729611
 30
0.0
 10
166.391395
 20
238.979459
 30
0.0
  0
LWPOLYLINE
  5
1f2
100
AcDbEntity
  8
Layer_1
 62
7
100
AcDbPolyline
 90
4
 70
1
 10
54.341799
 20
238.979459
 30
0.0
 10
54.341799
 20
233.729611
 30
0.0
 10
67.041741
 20
233.729611
 30
0.0
 10
67.041741
 20
238.979459
 30
0.0
  0
SPLINE
  5
1f3
100
AcDbEntity
  8
Layer_1
 62
7
100
AcDbSpline
 70
8
 71
3
 72
8
 73
4
 74
0
 40
0
 40
0
 40
0
 40
0
 40
1
 40
1
 40
1
 40
1
 10
175.607311
 20
196.864777
 30
0.0
 10
175.607311
 20
197.936603
 30
0.0
 10
175.035520
 20
198.926935
 30
0.0
 10
174.107313
 20
199.462715
 30
0.0
  0
SPLINE
  5
1f4
100
AcDbEntity
  8
Layer_1
 62
7
100
AcDbSpline
 70
8
 71
3
 72
8
 73
4
 74
0
 40
0
 40
0
 40
0
 40
0
 40
1
 40
1
 40
1
 40
1
 10
174.107313
 20
199.462715
 30
0.0
 10
173.179129
 20
199.998760
 30
0.0
 10
172.035525
 20
199.998760
 30
0.0
 10
171.107315
 20
199.462715
 30
0.0
  0
SPLINE
  5
1f5
100
AcDbEntity
  8
Layer_1
 62
7
100
AcDbSpline
 70
8
 71
3
 72
8
 73
4
 74
0
 40
0
 40
0
 40
0
 40
0
 40
1
 40
1
 40
1
 40
1
 10
171.107315
 20
199.462715
 30
0.0
 10
170.179131
 20
198.926935
 30
0.0
 10
169.607317
 20
197.936603
 30
0.0
 10
169.607317
 20
196.864777
 30
0.0
  0
SPLINE
  5
1f6
100
AcDbEntity
  8
Layer_1
 62
7
100
AcDbSpline
 70
8
 71
3
 72
8
 73
4
 74
0
 40
0
 40
0
 40
0
 40
0
 40
1
 40
1
 40
1
 40
1
 10
169.607317
 20
196.864777
 30
0.0
 10
169.607317
 20
195.792954
 30
0.0
 10
170.179131
 20
194.802620
 30
0.0
 10
171.107315
 20
194.266578
 30
0.0
  0
SPLINE
  5
1f7
100
AcDbEntity
  8
Layer_1
 62
7
100
AcDbSpline
 70
8
 71
3
 72
8
 73
4
 74
0
 40
0
 40
0
 40
0
 40
0
 40
1
 40
1
 40
1
 40
1
 10
171.107315
 20
194.266578
 30
0.0
 10
172.035525
 20
193.730797
 30
0.0
 10
173.179129
 20
193.730797
 30
0.0
 10
174.107313
 20
194.266578
 30
0.0
  0
SPLINE
  5
1f8
100
AcDbEntity
  8
Layer_1
 62
7
100
AcDbSpline
 70
8
 71
3
 72
8
 73
4
 74
0
 40
0
 40
0
 40
0
 40
0
 40
1
 40
1
 40
1
 40
1
 10
174.107313
 20
194.266578
 30
0.0
 10
175.035520
 20
194.802620
 30
0.0
 10
175.607311
 20
195.792954
 30
0.0
 10
175.607311
 20
196.864777
 30
0.0
  0
LWPOLYLINE
  5
1f9
100
AcDbEntity
  8
Layer_1
 62
7
100
AcDbPolyline
 90
4
 70
1
 10
-14.307959
 20
238.979459
 30
0.0
 10
-14.307959
 20
233.729611
 30
0.0
 10
-7.957974
 20
233.729611
 30
0.0
 10
-7.957974
 20
238.979459
 30
0.0
  0
SPLINE
  5
1fa
100
AcDbEntity
  8
Layer_1
 62
7
100
AcDbSpline
 70
8
 71
3
 72
8
 73
4
 74
0
 40
0
 40
0
 40
0
 40
0
 40
1
 40
1
 40
1
 40
1
 10
102.166624
 20
182.479683
 30
0.0
 10
102.166624
 20
183.015728
 30
0.0
 10
101.880715
 20
183.510763
 30
0.0
 10
101.416610
 20
183.778783
 30
0.0
  0
SPLINE
  5
1fb
100
AcDbEntity
  8
Layer_1
 62
7
100
AcDbSpline
 70
8
 71
3
 72
8
 73
4
 74
0
 40
0
 40
0
 40
0
 40
0
 40
1
 40
1
 40
1
 40
1
 10
101.416610
 20
183.778783
 30
0.0
 10
100.952505
 20
184.046805
 30
0.0
 10
100.380718
 20
184.046805
 30
0.0
 10
99.916613
 20
183.778783
 30
0.0
  0
SPLINE
  5
1fc
100
AcDbEntity
  8
Layer_1
 62
7
100
AcDbSpline
 70
8
 71
3
 72
8
 73
4
 74
0
 40
0
 40
0
 40
0
 40
0
 40
1
 40
1
 40
1
 40
1
 10
99.916613
 20
183.778783
 30
0.0
 10
99.452508
 20
183.510763
 30
0.0
 10
99.166626
 20
183.015728
 30
0.0
 10
99.166626
 20
182.479683
 30
0.0
  0
SPLINE
  5
1fd
100
AcDbEntity
  8
Layer_1
 62
7
100
AcDbSpline
 70
8
 71
3
 72
8
 73
4
 74
0
 40
0
 40
0
 40
0
 40
0
 40
1
 40
1
 40
1
 40
1
 10
99.166626
 20
182.479683
 30
0.0
 10
99.166626
 20
181.943902
 30
0.0
 10
99.452508
 20
181.448605
 30
0.0
 10
99.916613
 20
181.180847
 30
0.0
  0
SPLINE
  5
1fe
100
AcDbEntity
  8
Layer_1
 62
7
100
AcDbSpline
 70
8
 71
3
 72
8
 73
4
 74
0
 40
0
 40
0
 40
0
 40
0
 40
1
 40
1
 40
1
 40
1
 10
99.916613
 20
181.180847
 30
0.0
 10
100.380718
 20
180.912825
 30
0.0
 10
100.952505
 20
180.912825
 30
0.0
 10
101.416610
 20
181.180847
 30
0.0
  0
SPLINE
  5
1ff
100
AcDbEntity
  8
Layer_1
 62
7
100
AcDbSpline
 70
8
 71
3
 72
8
 73
4
 74
0
 40
0
 40
0
 40
0
 40
0
 40
1
 40
1
 40
1
 40
1
 10
101.416610
 20
181.180847
 30
0.0
 10
101.880715
 20
181.448605
 30
0.0
 10
102.166624
 20
181.943902
 30
0.0
 10
102.166624
 20
182.479683
 30
0.0
  0
SPLINE
  5
200
100
AcDbEntity
  8
Layer_1
 62
7
100
AcDbSpline
 70
8
 71
3
 72
8
 73
4
 74
0
 40
0
 40
0
 40
0
 40
0
 40
1
 40
1
 40
1
 40
1
 10
175.607311
 20
168.094853
 30
0.0
 10
175.607311
 20
169.166678
 30
0.0
 10
175.035520
 20
170.157010
 30
0.0
 10
174.107313
 20
170.692790
 30
0.0
  0
SPLINE
  5
201
100
AcDbEntity
  8
Layer_1
 62
7
100
AcDbSpline
 70
8
 71
3
 72
8
 73
4
 74
0
 40
0
 40
0
 40
0
 40
0
 40
1
 40
1
 40
1
 40
1
 10
174.107313
 20
170.692790
 30
0.0
 10
173.179129
 20
171.228833
 30
0.0
 10
172.035525
 20
171.228833
 30
0.0
 10
171.107315
 20
170.692790
 30
0.0
  0
SPLINE
  5
202
100
AcDbEntity
  8
Layer_1
 62
7
100
AcDbSpline
 70
8
 71
3
 72
8
 73
4
 74
0
 40
0
 40
0
 40
0
 40
0
 40
1
 40
1
 40
1
 40
1
 10
171.107315
 20
170.692790
 30
0.0
 10
170.179131
 20
170.157010
 30
0.0
 10
169.607317
 20
169.166678
 30
0.0
 10
169.607317
 20
168.094853
 30
0.0
  0
SPLINE
  5
203
100
AcDbEntity
  8
Layer_1
 62
7
100
AcDbSpline
 70
8
 71
3
 72
8
 73
4
 74
0
 40
0
 40
0
 40
0
 40
0
 40
1
 40
1
 40
1
 40
1
 10
169.607317
 20
168.094853
 30
0.0
 10
169.607317
 20
167.023030
 30
0.0
 10
170.179131
 20
166.032695
 30
0.0
 10
171.107315
 20
165.496650
 30
0.0
  0
SPLINE
  5
204
100
AcDbEntity
  8
Layer_1
 62
7
100
AcDbSpline
 70
8
 71
3
 72
8
 73
4
 74
0
 40
0
 40
0
 40
0
 40
0
 40
1
 40
1
 40
1
 40
1
 10
171.107315
 20
165.496650
 30
0.0
 10
172.035525
 20
164.960872
 30
0.0
 10
173.179129
 20
164.960872
 30
0.0
 10
174.107313
 20
165.496650
 30
0.0
  0
SPLINE
  5
205
100
AcDbEntity
  8
Layer_1
 62
7
100
AcDbSpline
 70
8
 71
3
 72
8
 73
4
 74
0
 40
0
 40
0
 40
0
 40
0
 40
1
 40
1
 40
1
 40
1
 10
174.107313
 20
165.496650
 30
0.0
 10
175.035520
 20
166.032695
 30
0.0
 10
175.607311
 20
167.023030
 30
0.0
 10
175.607311
 20
168.094853
 30
0.0
  0
SPLINE
  5
206
100
AcDbEntity
  8
Layer_1
 62
7
100
AcDbSpline
 70
8
 71
3
 72
8
 73
4
 74
0
 40
0
 40
0
 40
0
 40
0
 40
1
 40
1
 40
1
 40
1
 10
151.166435
 20
182.479683
 30
0.0
 10
151.166435
 20
183.015728
 30
0.0
 10
150.880553
 20
183.510763
 30
0.0
 10
150.416448
 20
183.778783
 30
0.0
  0
SPLINE
  5
207
100
AcDbEntity
  8
Layer_1
 62
7
100
AcDbSpline
 70
8
 71
3
 72
8
 73
4
 74
0
 40
0
 40
0
 40
0
 40
0
 40
1
 40
1
 40
1
 40
1
 10
150.416448
 20
183.778783
 30
0.0
 10
149.952343
 20
184.046805
 30
0.0
 10
149.380553
 20
184.046805
 30
0.0
 10
148.916450
 20
183.778783
 30
0.0
  0
SPLINE
  5
208
100
AcDbEntity
  8
Layer_1
 62
7
100
AcDbSpline
 70
8
 71
3
 72
8
 73
4
 74
0
 40
0
 40
0
 40
0
 40
0
 40
1
 40
1
 40
1
 40
1
 10
148.916450
 20
183.778783
 30
0.0
 10
148.452345
 20
183.510763
 30
0.0
 10
148.166437
 20
183.015728
 30
0.0
 10
148.166437
 20
182.479683
 30
0.0
  0
SPLINE
  5
209
100
AcDbEntity
  8
Layer_1
 62
7
100
AcDbSpline
 70
8
 71
3
 72
8
 73
4
 74
0
 40
0
 40
0
 40
0
 40
0
 40
1
 40
1
 40
1
 40
1
 10
148.166437
 20
182.479683
 30
0.0
 10
148.166437
 20
181.943902
 30
0.0
 10
148.452345
 20
181.448605
 30
0.0
 10
148.916450
 20
181.180847
 30
0.0
  0
SPLINE
  5
20a
100
AcDbEntity
  8
Layer_1
 62
7
100
AcDbSpline
 70
8
 71
3
 72
8
 73
4
 74
0
 40
0
 40
0
 40
0
 40
0
 40
1
 40
1
 40
1
 40
1
 10
148.916450
 20
181.180847
 30
0.0
 10
149.380553
 20
180.912825
 30
0.0
 10
149.952343
 20
180.912825
 30
0.0
 10
150.416448
 20
181.180847
 30
0.0
  0
SPLINE
  5
20b
100
AcDbEntity
  8
Layer_1
 62
7
100
AcDbSpline
 70
8
 71
3
 72
8
 73
4
 74
0
 40
0
 40
0
 40
0
 40
0
 40
1
 40
1
 40
1
 40
1
 10
150.416448
 20
181.180847
 30
0.0
 10
150.880553
 20
181.448605
 30
0.0
 10
151.166435
 20
181.943902
 30
0.0
 10
151.166435
 20
182.479683
 30
0.0
  0
LWPOLYLINE
  5
20c
100
AcDbEntity
  8
Layer_1
 62
7
100
AcDbPolyline
 90
4
 70
1
 10
278.890939
 20
255.979425
 30
0.0
 10
278.890939
 20
261.229539
 30
0.0
 10
272.540981
 20
261.229539
 30
0.0
 10
272.540981
 20
255.979425
 30
0.0
  0
SPLINE
  5
20d
100
AcDbEntity
  8
Layer_1
 62
7
100
AcDbSpline
 70
8
 71
3
 72
8
 73
4
 74
0
 40
0
 40
0
 40
0
 40
0
 40
1
 40
1
 40
1
 40
1
 10
102.566620
 20
117.479924
 30
0.0
 10
102.569266
 20
118.374479
 30
0.0
 10
102.092302
 20
119.201563
 30
0.0
 10
101.318053
 20
119.649237
 30
0.0
  0
SPLINE
  5
20e
100
AcDbEntity
  8
Layer_1
 62
7
100
AcDbSpline
 70
8
 71
3
 72
8
 73
4
 74
0
 40
0
 40
0
 40
0
 40
0
 40
1
 40
1
 40
1
 40
1
 10
101.318053
 20
119.649237
 30
0.0
 10
100.543833
 20
120.096911
 30
0.0
 10
99.589429
 20
120.096911
 30
0.0
 10
98.815183
 20
119.649237
 30
0.0
  0
SPLINE
  5
20f
100
AcDbEntity
  8
Layer_1
 62
7
100
AcDbSpline
 70
8
 71
3
 72
8
 73
4
 74
0
 40
0
 40
0
 40
0
 40
0
 40
1
 40
1
 40
1
 40
1
 10
98.815183
 20
119.649237
 30
0.0
 10
98.040960
 20
119.201563
 30
0.0
 10
97.564843
 20
118.374479
 30
0.0
 10
97.566642
 20
117.479924
 30
0.0
  0
SPLINE
  5
210
100
AcDbEntity
  8
Layer_1
 62
7
100
AcDbSpline
 70
8
 71
3
 72
8
 73
4
 74
0
 40
0
 40
0
 40
0
 40
0
 40
1
 40
1
 40
1
 40
1
 10
97.566642
 20
117.479924
 30
0.0
 10
97.563996
 20
116.585633
 30
0.0
 10
98.040960
 20
115.758549
 30
0.0
 10
98.815183
 20
115.310875
 30
0.0
  0
SPLINE
  5
211
100
AcDbEntity
  8
Layer_1
 62
7
100
AcDbSpline
 70
8
 71
3
 72
8
 73
4
 74
0
 40
0
 40
0
 40
0
 40
0
 40
1
 40
1
 40
1
 40
1
 10
98.815183
 20
115.310875
 30
0.0
 10
99.589429
 20
114.863200
 30
0.0
 10
100.543833
 20
114.863200
 30
0.0
 10
101.318053
 20
115.310875
 30
0.0
  0
SPLINE
  5
212
100
AcDbEntity
  8
Layer_1
 62
7
100
AcDbSpline
 70
8
 71
3
 72
8
 73
4
 74
0
 40
0
 40
0
 40
0
 40
0
 40
1
 40
1
 40
1
 40
1
 10
101.318053
 20
115.310875
 30
0.0
 10
102.092302
 20
115.758549
 30
0.0
 10
102.568393
 20
116.585633
 30
0.0
 10
102.566620
 20
117.479924
 30
0.0
  0
LWPOLYLINE
  5
213
100
AcDbEntity
  8
Layer_1
 62
7
100
AcDbPolyline
 90
4
 70
1
 10
272.540981
 20
238.979459
 30
0.0
 10
272.540981
 20
233.729611
 30
0.0
 10
278.890939
 20
233.729611
 30
0.0
 10
278.890939
 20
238.979459
 30
0.0
  0
SPLINE
  5
214
100
AcDbEntity
  8
Layer_1
 62
7
100
AcDbSpline
 70
8
 71
3
 72
8
 73
4
 74
0
 40
0
 40
0
 40
0
 40
0
 40
1
 40
1
 40
1
 40
1
 10
152.766419
 20
117.479924
 30
0.0
 10
152.769064
 20
118.374479
 30
0.0
 10
152.292127
 20
119.201563
 30
0.0
 10
151.517878
 20
119.649237
 30
0.0
  0
SPLINE
  5
215
100
AcDbEntity
  8
Layer_1
 62
7
100
AcDbSpline
 70
8
 71
3
 72
8
 73
4
 74
0
 40
0
 40
0
 40
0
 40
0
 40
1
 40
1
 40
1
 40
1
 10
151.517878
 20
119.649237
 30
0.0
 10
150.743658
 20
120.096911
 30
0.0
 10
149.789228
 20
120.096911
 30
0.0
 10
149.015005
 20
119.649237
 30
0.0
  0
SPLINE
  5
216
100
AcDbEntity
  8
Layer_1
 62
7
100
AcDbSpline
 70
8
 71
3
 72
8
 73
4
 74
0
 40
0
 40
0
 40
0
 40
0
 40
1
 40
1
 40
1
 40
1
 10
149.015005
 20
119.649237
 30
0.0
 10
148.240758
 20
119.201563
 30
0.0
 10
147.764668
 20
118.374479
 30
0.0
 10
147.766440
 20
117.479924
 30
0.0
  0
SPLINE
  5
217
100
AcDbEntity
  8
Layer_1
 62
7
100
AcDbSpline
 70
8
 71
3
 72
8
 73
4
 74
0
 40
0
 40
0
 40
0
 40
0
 40
1
 40
1
 40
1
 40
1
 10
147.766440
 20
117.479924
 30
0.0
 10
147.763794
 20
116.585633
 30
0.0
 10
148.240758
 20
115.758549
 30
0.0
 10
149.015005
 20
115.310875
 30
0.0
  0
SPLINE
  5
218
100
AcDbEntity
  8
Layer_1
 62
7
100
AcDbSpline
 70
8
 71
3
 72
8
 73
4
 74
0
 40
0
 40
0
 40
0
 40
0
 40
1
 40
1
 40
1
 40
1
 10
149.015005
 20
115.310875
 30
0.0
 10
149.789228
 20
114.863200
 30
0.0
 10
150.743658
 20
114.863200
 30
0.0
 10
151.517878
 20
115.310875
 30
0.0
  0
SPLINE
  5
219
100
AcDbEntity
  8
Layer_1
 62
7
100
AcDbSpline
 70
8
 71
3
 72
8
 73
4
 74
0
 40
0
 40
0
 40
0
 40
0
 40
1
 40
1
 40
1
 40
1
 10
151.517878
 20
115.310875
 30
0.0
 10
152.292127
 20
115.758549
 30
0.0
 10
152.768218
 20
116.585633
 30
0.0
 10
152.766419
 20
117.479924
 30
0.0
  0
SPLINE
  5
21a
100
AcDbEntity
  8
Layer_1
 62
7
100
AcDbSpline
 70
8
 71
3
 72
8
 73
4
 74
0
 40
0
 40
0
 40
0
 40
0
 40
1
 40
1
 40
1
 40
1
 10
126.666502
 20
103.095094
 30
0.0
 10
126.666528
 20
102.697161
 30
0.0
 10
126.508493
 20
102.315632
 30
0.0
 10
126.227188
 20
102.034380
 30
0.0
  0
SPLINE
  5
21b
100
AcDbEntity
  8
Layer_1
 62
7
100
AcDbSpline
 70
8
 71
3
 72
8
 73
4
 74
0
 40
0
 40
0
 40
0
 40
0
 40
1
 40
1
 40
1
 40
1
 10
126.227188
 20
102.034380
 30
0.0
 10
125.945886
 20
101.753131
 30
0.0
 10
125.564331
 20
101.595175
 30
0.0
 10
125.166530
 20
101.595175
 30
0.0
  0
SPLINE
  5
21c
100
AcDbEntity
  8
Layer_1
 62
7
100
AcDbSpline
 70
8
 71
3
 72
8
 73
4
 74
0
 40
0
 40
0
 40
0
 40
0
 40
1
 40
1
 40
1
 40
1
 10
87.725702
 20
101.595175
 30
0.0
 10
87.189816
 20
101.595175
 30
0.0
 10
86.694622
 20
101.880925
 30
0.0
 10
86.426679
 20
102.345003
 30
0.0
  0
SPLINE
  5
21d
100
AcDbEntity
  8
Layer_1
 62
7
100
AcDbSpline
 70
8
 71
3
 72
8
 73
4
 74
0
 40
0
 40
0
 40
0
 40
0
 40
1
 40
1
 40
1
 40
1
 10
86.426679
 20
102.345003
 30
0.0
 10
86.158738
 20
102.809079
 30
0.0
 10
86.158738
 20
103.380843
 30
0.0
 10
86.426679
 20
103.845186
 30
0.0
  0
SPLINE
  5
21e
100
AcDbEntity
  8
Layer_1
 62
7
100
AcDbSpline
 70
8
 71
3
 72
8
 73
4
 74
0
 40
0
 40
0
 40
0
 40
0
 40
1
 40
1
 40
1
 40
1
 10
86.426679
 20
103.845186
 30
0.0
 10
86.694622
 20
104.309265
 30
0.0
 10
87.189816
 20
104.595012
 30
0.0
 10
87.725702
 20
104.595012
 30
0.0
  0
LWPOLYLINE
  5
21f
100
AcDbEntity
  8
Layer_1
 62
7
100
AcDbPolyline
 90
4
 70
1
 10
105.665279
 20
201.588372
 30
0.0
 10
105.665279
 20
163.371258
 30
0.0
 10
144.667782
 20
163.371258
 30
0.0
 10
144.667782
 20
201.588372
 30
0.0
  0
SPLINE
  5
220
100
AcDbEntity
  8
Layer_1
 62
7
100
AcDbSpline
 70
8
 71
3
 72
8
 73
4
 74
0
 40
0
 40
0
 40
0
 40
0
 40
1
 40
1
 40
1
 40
1
 10
123.666533
 20
114.998138
 30
0.0
 10
122.797536
 20
115.523335
 30
0.0
 10
122.266518
 20
116.464721
 30
0.0
 10
122.266518
 20
117.479924
 30
0.0
  0
SPLINE
  5
221
100
AcDbEntity
  8
Layer_1
 62
7
100
AcDbSpline
 70
8
 71
3
 72
8
 73
4
 74
0
 40
0
 40
0
 40
0
 40
0
 40
1
 40
1
 40
1
 40
1
 10
122.266518
 20
117.479924
 30
0.0
 10
122.266518
 20
118.495393
 30
0.0
 10
122.797536
 20
119.436777
 30
0.0
 10
123.666533
 20
119.961974
 30
0.0
  0
LWPOLYLINE
  5
222
100
AcDbEntity
  8
Layer_1
 62
7
100
AcDbPolyline
 90
60
 70
1
 10
190.591263
 20
180.979764
 30
0.0
 10
194.641256
 20
180.979764
 30
0.0
 10
194.641256
 20
173.979700
 30
0.0
 10
200.991240
 20
173.979700
 30
0.0
 10
200.991240
 20
168.729852
 30
0.0
 10
194.641256
 20
168.729852
 30
0.0
 10
194.641256
 20
161.329738
 30
0.0
 10
179.641323
 20
161.329738
 30
0.0
 10
179.641323
 20
154.979754
 30
0.0
 10
159.903908
 20
154.979754
 30
0.0
 10
159.903908
 20
161.329738
 30
0.0
 10
140.166489
 20
161.329738
 30
0.0
 10
140.166489
 20
154.979754
 30
0.0
 10
110.166571
 20
154.979754
 30
0.0
 10
110.166571
 20
161.329738
 30
0.0
 10
90.429156
 20
161.329738
 30
0.0
 10
90.429156
 20
154.979754
 30
0.0
 10
70.691738
 20
154.979754
 30
0.0
 10
70.691738
 20
161.329738
 30
0.0
 10
55.691805
 20
161.329738
 30
0.0
 10
55.691805
 20
168.729852
 30
0.0
 10
49.341821
 20
168.729852
 30
0.0
 10
49.341821
 20
173.979700
 30
0.0
 10
55.691805
 20
173.979700
 30
0.0
 10
55.691805
 20
180.979764
 30
0.0
 10
59.741772
 20
180.979764
 30
0.0
 10
59.741772
 20
179.829887
 30
0.0
 10
61.841791
 20
179.829887
 30
0.0
 10
61.841791
 20
185.129743
 30
0.0
 10
59.741772
 20
185.129743
 30
0.0
 10
59.741772
 20
183.979604
 30
0.0
 10
55.691805
 20
183.979604
 30
0.0
 10
55.691805
 20
190.979666
 30
0.0
 10
49.341821
 20
190.979666
 30
0.0
 10
49.341821
 20
196.229781
 30
0.0
 10
55.691805
 20
196.229781
 30
0.0
 10
55.691805
 20
203.629627
 30
0.0
 10
70.691738
 20
203.629627
 30
0.0
 10
70.691738
 20
209.979612
 30
0.0
 10
90.429156
 20
209.979612
 30
0.0
 10
90.429156
 20
203.629627
 30
0.0
 10
110.166571
 20
203.629627
 30
0.0
 10
110.166571
 20
209.979612
 30
0.0
 10
140.166489
 20
209.979612
 30
0.0
 10
140.166489
 20
203.629627
 30
0.0
 10
159.903908
 20
203.629627
 30
0.0
 10
159.903908
 20
209.979612
 30
0.0
 10
179.641323
 20
209.979612
 30
0.0
 10
179.641323
 20
203.629627
 30
0.0
 10
194.641256
 20
203.629627
 30
0.0
 10
194.641256
 20
196.229781
 30
0.0
 10
200.991240
 20
196.229781
 30
0.0
 10
200.991240
 20
190.979666
 30
0.0
 10
194.641256
 20
190.979666
 30
0.0
 10
194.641256
 20
183.979604
 30
0.0
 10
190.591263
 20
183.979604
 30
0.0
 10
190.591263
 20
185.129743
 30
0.0
 10
188.491296
 20
185.129743
 30
0.0
 10
188.491296
 20
179.829887
 30
0.0
 10
190.591263
 20
179.829887
 30
0.0
  0
SPLINE
  5
223
100
AcDbEntity
  8
Layer_1
 62
7
100
AcDbSpline
 70
8
 71
3
 72
8
 73
4
 74
0
 40
0
 40
0
 40
0
 40
0
 40
1
 40
1
 40
1
 40
1
 10
87.725702
 20
130.364835
 30
0.0
 10
87.189816
 20
130.364835
 30
0.0
 10
86.694622
 20
130.650850
 30
0.0
 10
86.426679
 20
131.114928
 30
0.0
  0
SPLINE
  5
224
100
AcDbEntity
  8
Layer_1
 62
7
100
AcDbSpline
 70
8
 71
3
 72
8
 73
4
 74
0
 40
0
 40
0
 40
0
 40
0
 40
1
 40
1
 40
1
 40
1
 10
86.426679
 20
131.114928
 30
0.0
 10
86.158738
 20
131.579004
 30
0.0
 10
86.158738
 20
132.150768
 30
0.0
 10
86.426679
 20
132.614846
 30
0.0
  0
SPLINE
  5
225
100
AcDbEntity
  8
Layer_1
 62
7
100
AcDbSpline
 70
8
 71
3
 72
8
 73
4
 74
0
 40
0
 40
0
 40
0
 40
0
 40
1
 40
1
 40
1
 40
1
 10
86.426679
 20
132.614846
 30
0.0
 10
86.694622
 20
133.078925
 30
0.0
 10
87.189816
 20
133.364939
 30
0.0
 10
87.725702
 20
133.364939
 30
0.0
  0
LWPOLYLINE
  5
226
100
AcDbEntity
  8
Layer_1
 62
7
100
AcDbPolyline
 90
2
 70
0
 10
125.166530
 20
101.595175
 30
0.0
 10
87.725702
 20
101.595175
 30
0.0
  0
SPLINE
  5
227
100
AcDbEntity
  8
Layer_1
 62
7
100
AcDbSpline
 70
8
 71
3
 72
8
 73
4
 74
0
 40
0
 40
0
 40
0
 40
0
 40
1
 40
1
 40
1
 40
1
 10
125.166530
 20
133.364939
 30
0.0
 10
125.564331
 20
133.364939
 30
0.0
 10
125.945886
 20
133.206983
 30
0.0
 10
126.227188
 20
132.925732
 30
0.0
  0
SPLINE
  5
228
100
AcDbEntity
  8
Layer_1
 62
7
100
AcDbSpline
 70
8
 71
3
 72
8
 73
4
 74
0
 40
0
 40
0
 40
0
 40
0
 40
1
 40
1
 40
1
 40
1
 10
126.227188
 20
132.925732
 30
0.0
 10
126.508493
 20
132.644215
 30
0.0
 10
126.666528
 20
132.262687
 30
0.0
 10
126.666502
 20
131.865018
 30
0.0
  0
LWPOLYLINE
  5
229
100
AcDbEntity
  8
Layer_1
 62
7
100
AcDbPolyline
 90
3
 70
0
 10
87.725702
 20
104.595012
 30
0.0
 10
123.666533
 20
104.595012
 30
0.0
 10
123.666533
 20
114.998138
 30
0.0
  0
SPLINE
  5
22a
100
AcDbEntity
  8
Layer_1
 62
7
100
AcDbSpline
 70
8
 71
3
 72
8
 73
4
 74
0
 40
0
 40
0
 40
0
 40
0
 40
1
 40
1
 40
1
 40
1
 10
126.666502
 20
119.961974
 30
0.0
 10
127.535498
 20
119.436777
 30
0.0
 10
128.066516
 20
118.495393
 30
0.0
 10
128.066516
 20
117.479924
 30
0.0
  0
SPLINE
  5
22b
100
AcDbEntity
  8
Layer_1
 62
7
100
AcDbSpline
 70
8
 71
3
 72
8
 73
4
 74
0
 40
0
 40
0
 40
0
 40
0
 40
1
 40
1
 40
1
 40
1
 10
128.066516
 20
117.479924
 30
0.0
 10
128.066516
 20
116.464721
 30
0.0
 10
127.535498
 20
115.523335
 30
0.0
 10
126.666502
 20
114.998138
 30
0.0
  0
LWPOLYLINE
  5
22c
100
AcDbEntity
  8
Layer_1
 62
7
100
AcDbPolyline
 90
3
 70
0
 10
123.666533
 20
119.961974
 30
0.0
 10
123.666533
 20
130.364835
 30
0.0
 10
87.725702
 20
130.364835
 30
0.0
  0
LWPOLYLINE
  5
22d
100
AcDbEntity
  8
Layer_1
 62
7
100
AcDbPolyline
 90
2
 70
0
 10
87.725702
 20
133.364939
 30
0.0
 10
125.166530
 20
133.364939
 30
0.0
  0
SPLINE
  5
22e
100
AcDbEntity
  8
Layer_1
 62
7
100
AcDbSpline
 70
8
 71
3
 72
8
 73
4
 74
0
 40
0
 40
0
 40
0
 40
0
 40
1
 40
1
 40
1
 40
1
 10
152.766419
 20
52.480165
 30
0.0
 10
152.769064
 20
53.374720
 30
0.0
 10
152.292127
 20
54.201804
 30
0.0
 10
151.517878
 20
54.649478
 30
0.0
  0
SPLINE
  5
22f
100
AcDbEntity
  8
Layer_1
 62
7
100
AcDbSpline
 70
8
 71
3
 72
8
 73
4
 74
0
 40
0
 40
0
 40
0
 40
0
 40
1
 40
1
 40
1
 40
1
 10
151.517878
 20
54.649478
 30
0.0
 10
150.743658
 20
55.097152
 30
0.0
 10
149.789228
 20
55.097152
 30
0.0
 10
149.015005
 20
54.649478
 30
0.0
  0
SPLINE
  5
230
100
AcDbEntity
  8
Layer_1
 62
7
100
AcDbSpline
 70
8
 71
3
 72
8
 73
4
 74
0
 40
0
 40
0
 40
0
 40
0
 40
1
 40
1
 40
1
 40
1
 10
149.015005
 20
54.649478
 30
0.0
 10
148.240758
 20
54.201804
 30
0.0
 10
147.764668
 20
53.374720
 30
0.0
 10
147.766440
 20
52.480165
 30
0.0
  0
SPLINE
  5
231
100
AcDbEntity
  8
Layer_1
 62
7
100
AcDbSpline
 70
8
 71
3
 72
8
 73
4
 74
0
 40
0
 40
0
 40
0
 40
0
 40
1
 40
1
 40
1
 40
1
 10
147.766440
 20
52.480165
 30
0.0
 10
147.763794
 20
51.585874
 30
0.0
 10
148.240758
 20
50.758790
 30
0.0
 10
149.015005
 20
50.311116
 30
0.0
  0
SPLINE
  5
232
100
AcDbEntity
  8
Layer_1
 62
7
100
AcDbSpline
 70
8
 71
3
 72
8
 73
4
 74
0
 40
0
 40
0
 40
0
 40
0
 40
1
 40
1
 40
1
 40
1
 10
149.015005
 20
50.311116
 30
0.0
 10
149.789228
 20
49.863441
 30
0.0
 10
150.743658
 20
49.863441
 30
0.0
 10
151.517878
 20
50.311116
 30
0.0
  0
SPLINE
  5
233
100
AcDbEntity
  8
Layer_1
 62
7
100
AcDbSpline
 70
8
 71
3
 72
8
 73
4
 74
0
 40
0
 40
0
 40
0
 40
0
 40
1
 40
1
 40
1
 40
1
 10
151.517878
 20
50.311116
 30
0.0
 10
152.292127
 20
50.758790
 30
0.0
 10
152.768218
 20
51.585874
 30
0.0
 10
152.766419
 20
52.480165
 30
0.0
  0
LWPOLYLINE
  5
234
100
AcDbEntity
  8
Layer_1
 62
7
100
AcDbPolyline
 90
2
 70
0
 10
126.666502
 20
131.865018
 30
0.0
 10
126.666502
 20
119.961974
 30
0.0
  0
LWPOLYLINE
  5
235
100
AcDbEntity
  8
Layer_1
 62
7
100
AcDbPolyline
 90
2
 70
0
 10
126.666502
 20
114.998138
 30
0.0
 10
126.666502
 20
103.095094
 30
0.0
  0
SPLINE
  5
236
100
AcDbEntity
  8
Layer_1
 62
7
100
AcDbSpline
 70
8
 71
3
 72
8
 73
4
 74
0
 40
0
 40
0
 40
0
 40
0
 40
1
 40
1
 40
1
 40
1
 10
102.566620
 20
52.480165
 30
0.0
 10
102.569266
 20
53.374720
 30
0.0
 10
102.092302
 20
54.201804
 30
0.0
 10
101.318053
 20
54.649478
 30
0.0
  0
SPLINE
  5
237
100
AcDbEntity
  8
Layer_1
 62
7
100
AcDbSpline
 70
8
 71
3
 72
8
 73
4
 74
0
 40
0
 40
0
 40
0
 40
0
 40
1
 40
1
 40
1
 40
1
 10
101.318053
 20
54.649478
 30
0.0
 10
100.543833
 20
55.097152
 30
0.0
 10
99.589429
 20
55.097152
 30
0.0
 10
98.815183
 20
54.649478
 30
0.0
  0
SPLINE
  5
238
100
AcDbEntity
  8
Layer_1
 62
7
100
AcDbSpline
 70
8
 71
3
 72
8
 73
4
 74
0
 40
0
 40
0
 40
0
 40
0
 40
1
 40
1
 40
1
 40
1
 10
98.815183
 20
54.649478
 30
0.0
 10
98.040960
 20
54.201804
 30
0.0
 10
97.564843
 20
53.374720
 30
0.0
 10
97.566642
 20
52.480165
 30
0.0
  0
SPLINE
  5
239
100
AcDbEntity
  8
Layer_1
 62
7
100
AcDbSpline
 70
8
 71
3
 72
8
 73
4
 74
0
 40
0
 40
0
 40
0
 40
0
 40
1
 40
1
 40
1
 40
1
 10
97.566642
 20
52.480165
 30
0.0
 10
97.563996
 20
51.585874
 30
0.0
 10
98.040960
 20
50.758790
 30
0.0
 10
98.815183
 20
50.311116
 30
0.0
  0
SPLINE
  5
23a
100
AcDbEntity
  8
Layer_1
 62
7
100
AcDbSpline
 70
8
 71
3
 72
8
 73
4
 74
0
 40
0
 40
0
 40
0
 40
0
 40
1
 40
1
 40
1
 40
1
 10
98.815183
 20
50.311116
 30
0.0
 10
99.589429
 20
49.863441
 30
0.0
 10
100.543833
 20
49.863441
 30
0.0
 10
101.318053
 20
50.311116
 30
0.0
  0
SPLINE
  5
23b
100
AcDbEntity
  8
Layer_1
 62
7
100
AcDbSpline
 70
8
 71
3
 72
8
 73
4
 74
0
 40
0
 40
0
 40
0
 40
0
 40
1
 40
1
 40
1
 40
1
 10
101.318053
 20
50.311116
 30
0.0
 10
102.092302
 20
50.758790
 30
0.0
 10
102.568393
 20
51.585874
 30
0.0
 10
102.566620
 20
52.480165
 30
0.0
  0
LWPOLYLINE
  5
23c
100
AcDbEntity
  8
Layer_1
 62
7
100
AcDbPolyline
 90
46
 70
0
 10
59.861908
 20
138.629868
 30
0.0
 10
55.691805
 20
138.629868
 30
0.0
 10
55.691805
 20
131.230022
 30
0.0
 10
49.341821
 20
131.230022
 30
0.0
 10
49.341821
 20
125.979907
 30
0.0
 10
55.691805
 20
125.979907
 30
0.0
 10
55.691805
 20
108.979941
 30
0.0
 10
49.341821
 20
108.979941
 30
0.0
 10
49.341821
 20
103.730093
 30
0.0
 10
55.691805
 20
103.730093
 30
0.0
 10
55.691805
 20
96.329979
 30
0.0
 10
70.691738
 20
96.329979
 30
0.0
 10
70.691738
 20
89.979995
 30
0.0
 10
90.429156
 20
89.979995
 30
0.0
 10
90.429156
 20
96.329979
 30
0.0
 10
110.166571
 20
96.329979
 30
0.0
 10
110.166571
 20
89.979995
 30
0.0
 10
140.166489
 20
89.979995
 30
0.0
 10
140.166489
 20
96.329979
 30
0.0
 10
159.903908
 20
96.329979
 30
0.0
 10
159.903908
 20
89.979995
 30
0.0
 10
179.641323
 20
89.979995
 30
0.0
 10
179.641323
 20
96.329979
 30
0.0
 10
194.641256
 20
96.329979
 30
0.0
 10
194.641256
 20
103.730093
 30
0.0
 10
200.991240
 20
103.730093
 30
0.0
 10
200.991240
 20
108.979941
 30
0.0
 10
194.641256
 20
108.979941
 30
0.0
 10
194.641256
 20
125.979907
 30
0.0
 10
200.991240
 20
125.979907
 30
0.0
 10
200.991240
 20
131.230022
 30
0.0
 10
194.641256
 20
131.230022
 30
0.0
 10
194.641256
 20
138.629868
 30
0.0
 10
179.641323
 20
138.629868
 30
0.0
 10
179.641323
 20
144.979853
 30
0.0
 10
159.903908
 20
144.979853
 30
0.0
 10
159.903908
 20
138.629868
 30
0.0
 10
140.166489
 20
138.629868
 30
0.0
 10
140.166489
 20
144.979853
 30
0.0
 10
110.166571
 20
144.979853
 30
0.0
 10
110.166571
 20
138.629868
 30
0.0
 10
90.429156
 20
138.629868
 30
0.0
 10
90.429156
 20
144.979853
 30
0.0
 10
70.691738
 20
144.979853
 30
0.0
 10
70.691738
 20
138.629868
 30
0.0
 10
64.917333
 20
138.629868
 30
0.0
  0
SPLINE
  5
23d
100
AcDbEntity
  8
Layer_1
 62
7
100
AcDbSpline
 70
8
 71
3
 72
8
 73
4
 74
0
 40
0
 40
0
 40
0
 40
0
 40
1
 40
1
 40
1
 40
1
 10
127.591510
 20
52.480165
 30
0.0
 10
127.591510
 20
53.347203
 30
0.0
 10
127.130316
 20
54.148622
 30
0.0
 10
126.379670
 20
54.582274
 30
0.0
  0
SPLINE
  5
23e
100
AcDbEntity
  8
Layer_1
 62
7
100
AcDbSpline
 70
8
 71
3
 72
8
 73
4
 74
0
 40
0
 40
0
 40
0
 40
0
 40
1
 40
1
 40
1
 40
1
 10
126.379670
 20
54.582274
 30
0.0
 10
125.629048
 20
55.015925
 30
0.0
 10
124.704013
 20
55.015925
 30
0.0
 10
123.953393
 20
54.582274
 30
0.0
  0
SPLINE
  5
23f
100
AcDbEntity
  8
Layer_1
 62
7
100
AcDbSpline
 70
8
 71
3
 72
8
 73
4
 74
0
 40
0
 40
0
 40
0
 40
0
 40
1
 40
1
 40
1
 40
1
 10
123.953393
 20
54.582274
 30
0.0
 10
123.202745
 20
54.148622
 30
0.0
 10
122.740730
 20
53.347203
 30
0.0
 10
122.741550
 20
52.480165
 30
0.0
  0
SPLINE
  5
240
100
AcDbEntity
  8
Layer_1
 62
7
100
AcDbSpline
 70
8
 71
3
 72
8
 73
4
 74
0
 40
0
 40
0
 40
0
 40
0
 40
1
 40
1
 40
1
 40
1
 10
122.741550
 20
52.480165
 30
0.0
 10
122.741550
 20
51.613393
 30
0.0
 10
123.202745
 20
50.811971
 30
0.0
 10
123.953393
 20
50.378320
 30
0.0
  0
SPLINE
  5
241
100
AcDbEntity
  8
Layer_1
 62
7
100
AcDbSpline
 70
8
 71
3
 72
8
 73
4
 74
0
 40
0
 40
0
 40
0
 40
0
 40
1
 40
1
 40
1
 40
1
 10
123.953393
 20
50.378320
 30
0.0
 10
124.704013
 20
49.944668
 30
0.0
 10
125.629048
 20
49.944668
 30
0.0
 10
126.379670
 20
50.378320
 30
0.0
  0
SPLINE
  5
242
100
AcDbEntity
  8
Layer_1
 62
7
100
AcDbSpline
 70
8
 71
3
 72
8
 73
4
 74
0
 40
0
 40
0
 40
0
 40
0
 40
1
 40
1
 40
1
 40
1
 10
126.379670
 20
50.378320
 30
0.0
 10
127.130316
 20
50.811971
 30
0.0
 10
127.592330
 20
51.613393
 30
0.0
 10
127.591510
 20
52.480165
 30
0.0
  0
SPLINE
  5
243
100
AcDbEntity
  8
Layer_1
 62
7
100
AcDbSpline
 70
8
 71
3
 72
8
 73
4
 74
0
 40
0
 40
0
 40
0
 40
0
 40
1
 40
1
 40
1
 40
1
 10
184.641299
 20
68.630290
 30
0.0
 10
184.641299
 20
67.737060
 30
0.0
 10
185.117789
 20
66.911561
 30
0.0
 10
185.891295
 20
66.465210
 30
0.0
  0
SPLINE
  5
244
100
AcDbEntity
  8
Layer_1
 62
7
100
AcDbSpline
 70
8
 71
3
 72
8
 73
4
 74
0
 40
0
 40
0
 40
0
 40
0
 40
1
 40
1
 40
1
 40
1
 10
185.891295
 20
66.465210
 30
0.0
 10
186.664803
 20
66.018596
 30
0.0
 10
187.617776
 20
66.018596
 30
0.0
 10
188.391284
 20
66.465210
 30
0.0
  0
SPLINE
  5
245
100
AcDbEntity
  8
Layer_1
 62
7
100
AcDbSpline
 70
8
 71
3
 72
8
 73
4
 74
0
 40
0
 40
0
 40
0
 40
0
 40
1
 40
1
 40
1
 40
1
 10
188.391284
 20
66.465210
 30
0.0
 10
189.164792
 20
66.911561
 30
0.0
 10
189.641277
 20
67.737060
 30
0.0
 10
189.641277
 20
68.630290
 30
0.0
  0
LWPOLYLINE
  5
246
100
AcDbEntity
  8
Layer_1
 62
7
100
AcDbPolyline
 90
4
 70
0
 10
55.691805
 20
59.980288
 30
0.0
 10
69.782710
 20
59.980288
 30
0.0
 10
69.782710
 20
44.980306
 30
0.0
 10
55.691805
 20
44.980306
 30
0.0
  0
LWPOLYLINE
  5
247
100
AcDbEntity
  8
Layer_1
 62
7
100
AcDbPolyline
 90
4
 70
0
 10
194.641256
 20
44.980306
 30
0.0
 10
180.432294
 20
44.980306
 30
0.0
 10
180.432294
 20
59.980288
 30
0.0
 10
194.641256
 20
59.980288
 30
0.0
  0
LWPOLYLINE
  5
248
100
AcDbEntity
  8
Layer_1
 62
7
100
AcDbPolyline
 90
2
 70
0
 10
189.641277
 20
73.630109
 30
0.0
 10
189.641277
 20
68.630290
 30
0.0
  0
LWPOLYLINE
  5
249
100
AcDbEntity
  8
Layer_1
 62
7
100
AcDbPolyline
 90
20
 70
0
 10
184.641299
 20
68.630290
 30
0.0
 10
184.641299
 20
73.630109
 30
0.0
 10
179.641323
 20
73.630109
 30
0.0
 10
179.641323
 20
79.980094
 30
0.0
 10
159.903908
 20
79.980094
 30
0.0
 10
159.903908
 20
73.630109
 30
0.0
 10
140.166489
 20
73.630109
 30
0.0
 10
140.166489
 20
79.980094
 30
0.0
 10
110.166571
 20
79.980094
 30
0.0
 10
110.166571
 20
73.630109
 30
0.0
 10
90.429156
 20
73.630109
 30
0.0
 10
90.429156
 20
79.980094
 30
0.0
 10
70.691738
 20
79.980094
 30
0.0
 10
70.691738
 20
73.630109
 30
0.0
 10
55.691805
 20
73.630109
 30
0.0
 10
55.691805
 20
66.230263
 30
0.0
 10
49.341821
 20
66.230263
 30
0.0
 10
49.341821
 20
60.980148
 30
0.0
 10
55.691805
 20
60.980148
 30
0.0
 10
55.691805
 20
59.980288
 30
0.0
  0
SPLINE
  5
24a
100
AcDbEntity
  8
Layer_1
 62
7
100
AcDbSpline
 70
8
 71
3
 72
8
 73
4
 74
0
 40
0
 40
0
 40
0
 40
0
 40
1
 40
1
 40
1
 40
1
 10
184.641299
 20
3.630531
 30
0.0
 10
184.641299
 20
2.737301
 30
0.0
 10
185.117789
 20
1.912067
 30
0.0
 10
185.891295
 20
1.465451
 30
0.0
  0
SPLINE
  5
24b
100
AcDbEntity
  8
Layer_1
 62
7
100
AcDbSpline
 70
8
 71
3
 72
8
 73
4
 74
0
 40
0
 40
0
 40
0
 40
0
 40
1
 40
1
 40
1
 40
1
 10
185.891295
 20
1.465451
 30
0.0
 10
186.664803
 20
1.018835
 30
0.0
 10
187.617776
 20
1.018835
 30
0.0
 10
188.391284
 20
1.465451
 30
0.0
  0
SPLINE
  5
24c
100
AcDbEntity
  8
Layer_1
 62
7
100
AcDbSpline
 70
8
 71
3
 72
8
 73
4
 74
0
 40
0
 40
0
 40
0
 40
0
 40
1
 40
1
 40
1
 40
1
 10
188.391284
 20
1.465451
 30
0.0
 10
189.164792
 20
1.912067
 30
0.0
 10
189.641277
 20
2.737301
 30
0.0
 10
189.641277
 20
3.630531
 30
0.0
  0
LWPOLYLINE
  5
24d
100
AcDbEntity
  8
Layer_1
 62
7
100
AcDbPolyline
 90
23
 70
0
 10
55.691805
 20
43.980182
 30
0.0
 10
49.341821
 20
43.980182
 30
0.0
 10
49.341821
 20
38.730331
 30
0.0
 10
55.691805
 20
38.730331
 30
0.0
 10
55.691805
 20
31.330220
 30
0.0
 10
70.691738
 20
31.330220
 30
0.0
 10
70.691738
 20
24.980236
 30
0.0
 10
90.429156
 20
24.980236
 30
0.0
 10
90.429156
 20
31.330220
 30
0.0
 10
110.166571
 20
31.330220
 30
0.0
 10
110.166571
 20
24.980236
 30
0.0
 10
140.166489
 20
24.980236
 30
0.0
 10
140.166489
 20
31.330220
 30
0.0
 10
159.903908
 20
31.330220
 30
0.0
 10
159.903908
 20
24.980236
 30
0.0
 10
179.641323
 20
24.980236
 30
0.0
 10
179.641323
 20
31.330220
 30
0.0
 10
194.641256
 20
31.330220
 30
0.0
 10
194.641256
 20
38.730331
 30
0.0
 10
200.991240
 20
38.730331
 30
0.0
 10
200.991240
 20
43.980182
 30
0.0
 10
194.641256
 20
43.980182
 30
0.0
 10
194.641256
 20
44.980306
 30
0.0
  0
SPLINE
  5
24e
100
AcDbEntity
  8
Layer_1
 62
7
100
AcDbSpline
 70
8
 71
3
 72
8
 73
4
 74
0
 40
0
 40
0
 40
0
 40
0
 40
1
 40
1
 40
1
 40
1
 10
135.930838
 20
-12.519594
 30
0.0
 10
135.933484
 20
-8.672298
 30
0.0
 10
133.881937
 20
-5.116305
 30
0.0
 10
130.550495
 20
-3.191996
 30
0.0
  0
SPLINE
  5
24f
100
AcDbEntity
  8
Layer_1
 62
7
100
AcDbSpline
 70
8
 71
3
 72
8
 73
4
 74
0
 40
0
 40
0
 40
0
 40
0
 40
1
 40
1
 40
1
 40
1
 10
130.550495
 20
-3.191996
 30
0.0
 10
127.219083
 20
-1.267686
 30
0.0
 10
123.113977
 20
-1.267686
 30
0.0
 10
119.782563
 20
-3.191996
 30
0.0
  0
SPLINE
  5
250
100
AcDbEntity
  8
Layer_1
 62
7
100
AcDbSpline
 70
8
 71
3
 72
8
 73
4
 74
0
 40
0
 40
0
 40
0
 40
0
 40
1
 40
1
 40
1
 40
1
 10
119.782563
 20
-3.191996
 30
0.0
 10
116.451150
 20
-5.116305
 30
0.0
 10
114.399973
 20
-8.672298
 30
0.0
 10
114.402222
 20
-12.519594
 30
0.0
  0
SPLINE
  5
251
100
AcDbEntity
  8
Layer_1
 62
7
100
AcDbSpline
 70
8
 71
3
 72
8
 73
4
 74
0
 40
0
 40
0
 40
0
 40
0
 40
1
 40
1
 40
1
 40
1
 10
114.402222
 20
-12.519594
 30
0.0
 10
114.399576
 20
-16.366626
 30
0.0
 10
116.451150
 20
-19.922619
 30
0.0
 10
119.782563
 20
-21.846928
 30
0.0
  0
SPLINE
  5
252
100
AcDbEntity
  8
Layer_1
 62
7
100
AcDbSpline
 70
8
 71
3
 72
8
 73
4
 74
0
 40
0
 40
0
 40
0
 40
0
 40
1
 40
1
 40
1
 40
1
 10
119.782563
 20
-21.846928
 30
0.0
 10
123.113977
 20
-23.771238
 30
0.0
 10
127.219083
 20
-23.771238
 30
0.0
 10
130.550495
 20
-21.846928
 30
0.0
  0
SPLINE
  5
253
100
AcDbEntity
  8
Layer_1
 62
7
100
AcDbSpline
 70
8
 71
3
 72
8
 73
4
 74
0
 40
0
 40
0
 40
0
 40
0
 40
1
 40
1
 40
1
 40
1
 10
130.550495
 20
-21.846928
 30
0.0
 10
133.881937
 20
-19.922619
 30
0.0
 10
135.933087
 20
-16.366626
 30
0.0
 10
135.930838
 20
-12.519594
 30
0.0
  0
SPLINE
  5
254
100
AcDbEntity
  8
Layer_1
 62
7
100
AcDbSpline
 70
8
 71
3
 72
8
 73
4
 74
0
 40
0
 40
0
 40
0
 40
0
 40
1
 40
1
 40
1
 40
1
 10
173.236835
 20
4.430365
 30
0.0
 10
173.236835
 20
5.475465
 30
0.0
 10
172.679335
 20
6.440929
 30
0.0
 10
171.774355
 20
6.963480
 30
0.0
  0
SPLINE
  5
255
100
AcDbEntity
  8
Layer_1
 62
7
100
AcDbSpline
 70
8
 71
3
 72
8
 73
4
 74
0
 40
0
 40
0
 40
0
 40
0
 40
1
 40
1
 40
1
 40
1
 10
171.774355
 20
6.963480
 30
0.0
 10
170.869349
 20
7.486032
 30
0.0
 10
169.754346
 20
7.486032
 30
0.0
 10
168.849340
 20
6.963480
 30
0.0
  0
SPLINE
  5
256
100
AcDbEntity
  8
Layer_1
 62
7
100
AcDbSpline
 70
8
 71
3
 72
8
 73
4
 74
0
 40
0
 40
0
 40
0
 40
0
 40
1
 40
1
 40
1
 40
1
 10
168.849340
 20
6.963480
 30
0.0
 10
167.944363
 20
6.440929
 30
0.0
 10
167.386860
 20
5.475465
 30
0.0
 10
167.386860
 20
4.430365
 30
0.0
  0
SPLINE
  5
257
100
AcDbEntity
  8
Layer_1
 62
7
100
AcDbSpline
 70
8
 71
3
 72
8
 73
4
 74
0
 40
0
 40
0
 40
0
 40
0
 40
1
 40
1
 40
1
 40
1
 10
167.386860
 20
4.430365
 30
0.0
 10
167.386860
 20
3.385527
 30
0.0
 10
167.944363
 20
2.419802
 30
0.0
 10
168.849340
 20
1.897250
 30
0.0
  0
SPLINE
  5
258
100
AcDbEntity
  8
Layer_1
 62
7
100
AcDbSpline
 70
8
 71
3
 72
8
 73
4
 74
0
 40
0
 40
0
 40
0
 40
0
 40
1
 40
1
 40
1
 40
1
 10
168.849340
 20
1.897250
 30
0.0
 10
169.754346
 20
1.374699
 30
0.0
 10
170.869349
 20
1.374699
 30
0.0
 10
171.774355
 20
1.897250
 30
0.0
  0
SPLINE
  5
259
100
AcDbEntity
  8
Layer_1
 62
7
100
AcDbSpline
 70
8
 71
3
 72
8
 73
4
 74
0
 40
0
 40
0
 40
0
 40
0
 40
1
 40
1
 40
1
 40
1
 10
171.774355
 20
1.897250
 30
0.0
 10
172.679335
 20
2.419802
 30
0.0
 10
173.236835
 20
3.385527
 30
0.0
 10
173.236835
 20
4.430365
 30
0.0
  0
SPLINE
  5
25a
100
AcDbEntity
  8
Layer_1
 62
7
100
AcDbSpline
 70
8
 71
3
 72
8
 73
4
 74
0
 40
0
 40
0
 40
0
 40
0
 40
1
 40
1
 40
1
 40
1
 10
173.236835
 20
-29.469554
 30
0.0
 10
173.236835
 20
-28.424451
 30
0.0
 10
172.679335
 20
-27.458726
 30
0.0
 10
171.774355
 20
-26.936439
 30
0.0
  0
SPLINE
  5
25b
100
AcDbEntity
  8
Layer_1
 62
7
100
AcDbSpline
 70
8
 71
3
 72
8
 73
4
 74
0
 40
0
 40
0
 40
0
 40
0
 40
1
 40
1
 40
1
 40
1
 10
171.774355
 20
-26.936439
 30
0.0
 10
170.869349
 20
-26.413887
 30
0.0
 10
169.754346
 20
-26.413887
 30
0.0
 10
168.849340
 20
-26.936439
 30
0.0
  0
SPLINE
  5
25c
100
AcDbEntity
  8
Layer_1
 62
7
100
AcDbSpline
 70
8
 71
3
 72
8
 73
4
 74
0
 40
0
 40
0
 40
0
 40
0
 40
1
 40
1
 40
1
 40
1
 10
168.849340
 20
-26.936439
 30
0.0
 10
167.944363
 20
-27.458726
 30
0.0
 10
167.386860
 20
-28.424451
 30
0.0
 10
167.386860
 20
-29.469554
 30
0.0
  0
SPLINE
  5
25d
100
AcDbEntity
  8
Layer_1
 62
7
100
AcDbSpline
 70
8
 71
3
 72
8
 73
4
 74
0
 40
0
 40
0
 40
0
 40
0
 40
1
 40
1
 40
1
 40
1
 10
167.386860
 20
-29.469554
 30
0.0
 10
167.386860
 20
-30.514403
 30
0.0
 10
167.944363
 20
-31.480104
 30
0.0
 10
168.849340
 20
-32.002656
 30
0.0
  0
SPLINE
  5
25e
100
AcDbEntity
  8
Layer_1
 62
7
100
AcDbSpline
 70
8
 71
3
 72
8
 73
4
 74
0
 40
0
 40
0
 40
0
 40
0
 40
1
 40
1
 40
1
 40
1
 10
168.849340
 20
-32.002656
 30
0.0
 10
169.754346
 20
-32.524943
 30
0.0
 10
170.869349
 20
-32.524943
 30
0.0
 10
171.774355
 20
-32.002656
 30
0.0
  0
SPLINE
  5
25f
100
AcDbEntity
  8
Layer_1
 62
7
100
AcDbSpline
 70
8
 71
3
 72
8
 73
4
 74
0
 40
0
 40
0
 40
0
 40
0
 40
1
 40
1
 40
1
 40
1
 10
171.774355
 20
-32.002656
 30
0.0
 10
172.679335
 20
-31.480104
 30
0.0
 10
173.236835
 20
-30.514403
 30
0.0
 10
173.236835
 20
-29.469554
 30
0.0
  0
SPLINE
  5
260
100
AcDbEntity
  8
Layer_1
 62
7
100
AcDbSpline
 70
8
 71
3
 72
8
 73
4
 74
0
 40
0
 40
0
 40
0
 40
0
 40
1
 40
1
 40
1
 40
1
 10
82.887199
 20
4.430365
 30
0.0
 10
82.887199
 20
5.475465
 30
0.0
 10
82.329696
 20
6.440929
 30
0.0
 10
81.424692
 20
6.963480
 30
0.0
  0
SPLINE
  5
261
100
AcDbEntity
  8
Layer_1
 62
7
100
AcDbSpline
 70
8
 71
3
 72
8
 73
4
 74
0
 40
0
 40
0
 40
0
 40
0
 40
1
 40
1
 40
1
 40
1
 10
81.424692
 20
6.963480
 30
0.0
 10
80.519686
 20
7.486032
 30
0.0
 10
79.404683
 20
7.486032
 30
0.0
 10
78.499704
 20
6.963480
 30
0.0
  0
SPLINE
  5
262
100
AcDbEntity
  8
Layer_1
 62
7
100
AcDbSpline
 70
8
 71
3
 72
8
 73
4
 74
0
 40
0
 40
0
 40
0
 40
0
 40
1
 40
1
 40
1
 40
1
 10
78.499704
 20
6.963480
 30
0.0
 10
77.594700
 20
6.440929
 30
0.0
 10
77.037197
 20
5.475465
 30
0.0
 10
77.037197
 20
4.430365
 30
0.0
  0
SPLINE
  5
263
100
AcDbEntity
  8
Layer_1
 62
7
100
AcDbSpline
 70
8
 71
3
 72
8
 73
4
 74
0
 40
0
 40
0
 40
0
 40
0
 40
1
 40
1
 40
1
 40
1
 10
77.037197
 20
4.430365
 30
0.0
 10
77.037197
 20
3.385527
 30
0.0
 10
77.594700
 20
2.419802
 30
0.0
 10
78.499704
 20
1.897250
 30
0.0
  0
SPLINE
  5
264
100
AcDbEntity
  8
Layer_1
 62
7
100
AcDbSpline
 70
8
 71
3
 72
8
 73
4
 74
0
 40
0
 40
0
 40
0
 40
0
 40
1
 40
1
 40
1
 40
1
 10
78.499704
 20
1.897250
 30
0.0
 10
79.404683
 20
1.374699
 30
0.0
 10
80.519686
 20
1.374699
 30
0.0
 10
81.424692
 20
1.897250
 30
0.0
  0
SPLINE
  5
265
100
AcDbEntity
  8
Layer_1
 62
7
100
AcDbSpline
 70
8
 71
3
 72
8
 73
4
 74
0
 40
0
 40
0
 40
0
 40
0
 40
1
 40
1
 40
1
 40
1
 10
81.424692
 20
1.897250
 30
0.0
 10
82.329696
 20
2.419802
 30
0.0
 10
82.887199
 20
3.385527
 30
0.0
 10
82.887199
 20
4.430365
 30
0.0
  0
SPLINE
  5
266
100
AcDbEntity
  8
Layer_1
 62
7
100
AcDbSpline
 70
8
 71
3
 72
8
 73
4
 74
0
 40
0
 40
0
 40
0
 40
0
 40
1
 40
1
 40
1
 40
1
 10
82.887199
 20
-29.469554
 30
0.0
 10
82.887199
 20
-28.424451
 30
0.0
 10
82.329696
 20
-27.458726
 30
0.0
 10
81.424692
 20
-26.936439
 30
0.0
  0
SPLINE
  5
267
100
AcDbEntity
  8
Layer_1
 62
7
100
AcDbSpline
 70
8
 71
3
 72
8
 73
4
 74
0
 40
0
 40
0
 40
0
 40
0
 40
1
 40
1
 40
1
 40
1
 10
81.424692
 20
-26.936439
 30
0.0
 10
80.519686
 20
-26.413887
 30
0.0
 10
79.404683
 20
-26.413887
 30
0.0
 10
78.499704
 20
-26.936439
 30
0.0
  0
SPLINE
  5
268
100
AcDbEntity
  8
Layer_1
 62
7
100
AcDbSpline
 70
8
 71
3
 72
8
 73
4
 74
0
 40
0
 40
0
 40
0
 40
0
 40
1
 40
1
 40
1
 40
1
 10
78.499704
 20
-26.936439
 30
0.0
 10
77.594700
 20
-27.458726
 30
0.0
 10
77.037197
 20
-28.424451
 30
0.0
 10
77.037197
 20
-29.469554
 30
0.0
  0
SPLINE
  5
269
100
AcDbEntity
  8
Layer_1
 62
7
100
AcDbSpline
 70
8
 71
3
 72
8
 73
4
 74
0
 40
0
 40
0
 40
0
 40
0
 40
1
 40
1
 40
1
 40
1
 10
77.037197
 20
-29.469554
 30
0.0
 10
77.037197
 20
-30.514403
 30
0.0
 10
77.594700
 20
-31.480104
 30
0.0
 10
78.499704
 20
-32.002656
 30
0.0
  0
SPLINE
  5
26a
100
AcDbEntity
  8
Layer_1
 62
7
100
AcDbSpline
 70
8
 71
3
 72
8
 73
4
 74
0
 40
0
 40
0
 40
0
 40
0
 40
1
 40
1
 40
1
 40
1
 10
78.499704
 20
-32.002656
 30
0.0
 10
79.404683
 20
-32.524943
 30
0.0
 10
80.519686
 20
-32.524943
 30
0.0
 10
81.424692
 20
-32.002656
 30
0.0
  0
SPLINE
  5
26b
100
AcDbEntity
  8
Layer_1
 62
7
100
AcDbSpline
 70
8
 71
3
 72
8
 73
4
 74
0
 40
0
 40
0
 40
0
 40
0
 40
1
 40
1
 40
1
 40
1
 10
81.424692
 20
-32.002656
 30
0.0
 10
82.329696
 20
-31.480104
 30
0.0
 10
82.887199
 20
-30.514403
 30
0.0
 10
82.887199
 20
-29.469554
 30
0.0
  0
SPLINE
  5
26c
100
AcDbEntity
  8
Layer_1
 62
7
100
AcDbSpline
 70
8
 71
3
 72
8
 73
4
 74
0
 40
0
 40
0
 40
0
 40
0
 40
1
 40
1
 40
1
 40
1
 10
75.641710
 20
-92.319325
 30
0.0
 10
73.984865
 20
-92.319325
 30
0.0
 10
72.641738
 20
-90.976037
 30
0.0
 10
72.641738
 20
-89.319218
 30
0.0
  0
SPLINE
  5
26d
100
AcDbEntity
  8
Layer_1
 62
7
100
AcDbSpline
 70
8
 71
3
 72
8
 73
4
 74
0
 40
0
 40
0
 40
0
 40
0
 40
1
 40
1
 40
1
 40
1
 10
72.641738
 20
-53.019251
 30
0.0
 10
72.641738
 20
-51.362458
 30
0.0
 10
73.984865
 20
-50.019435
 30
0.0
 10
75.641710
 20
-50.019435
 30
0.0
  0
LWPOLYLINE
  5
26e
100
AcDbEntity
  8
Layer_1
 62
7
100
AcDbPolyline
 90
6
 70
0
 10
194.641256
 20
60.980148
 30
0.0
 10
200.991240
 20
60.980148
 30
0.0
 10
200.991240
 20
66.230263
 30
0.0
 10
194.641256
 20
66.230263
 30
0.0
 10
194.641256
 20
73.630109
 30
0.0
 10
189.641277
 20
73.630109
 30
0.0
  0
SPLINE
  5
26f
100
AcDbEntity
  8
Layer_1
 62
7
100
AcDbSpline
 70
8
 71
3
 72
8
 73
4
 74
0
 40
0
 40
0
 40
0
 40
0
 40
1
 40
1
 40
1
 40
1
 10
174.691327
 20
-50.019435
 30
0.0
 10
175.486978
 20
-50.019435
 30
0.0
 10
176.250036
 20
-50.335347
 30
0.0
 10
176.812642
 20
-50.898115
 30
0.0
  0
SPLINE
  5
270
100
AcDbEntity
  8
Layer_1
 62
7
100
AcDbSpline
 70
8
 71
3
 72
8
 73
4
 74
0
 40
0
 40
0
 40
0
 40
0
 40
1
 40
1
 40
1
 40
1
 10
176.812642
 20
-50.898115
 30
0.0
 10
177.375252
 20
-51.460619
 30
0.0
 10
177.691323
 20
-52.223676
 30
0.0
 10
177.691323
 20
-53.019251
 30
0.0
  0
LWPOLYLINE
  5
271
100
AcDbEntity
  8
Layer_1
 62
7
100
AcDbPolyline
 90
48
 70
0
 10
189.641277
 20
3.630531
 30
0.0
 10
189.641277
 20
8.630350
 30
0.0
 10
194.641256
 20
8.630350
 30
0.0
 10
194.641256
 20
1.230504
 30
0.0
 10
200.991240
 20
1.230504
 30
0.0
 10
200.991240
 20
-4.019611
 30
0.0
 10
179.432303
 20
-4.019611
 30
0.0
 10
179.432303
 20
-21.019577
 30
0.0
 10
200.991240
 20
-21.019577
 30
0.0
 10
200.991240
 20
-26.269428
 30
0.0
 10
194.641256
 20
-26.269428
 30
0.0
 10
194.641256
 20
-33.669529
 30
0.0
 10
179.641323
 20
-33.669529
 30
0.0
 10
179.641323
 20
-40.019521
 30
0.0
 10
159.903908
 20
-40.019521
 30
0.0
 10
159.903908
 20
-33.669529
 30
0.0
 10
140.166489
 20
-33.669529
 30
0.0
 10
140.166489
 20
-40.019521
 30
0.0
 10
110.166571
 20
-40.019521
 30
0.0
 10
110.166571
 20
-33.669529
 30
0.0
 10
90.429156
 20
-33.669529
 30
0.0
 10
90.429156
 20
-40.019521
 30
0.0
 10
70.691738
 20
-40.019521
 30
0.0
 10
70.691738
 20
-33.669529
 30
0.0
 10
55.691805
 20
-33.669529
 30
0.0
 10
55.691805
 20
-26.269428
 30
0.0
 10
49.341821
 20
-26.269428
 30
0.0
 10
49.341821
 20
-21.019577
 30
0.0
 10
70.782701
 20
-21.019577
 30
0.0
 10
70.782701
 20
-4.019611
 30
0.0
 10
49.341821
 20
-4.019611
 30
0.0
 10
49.341821
 20
1.230504
 30
0.0
 10
55.691805
 20
1.230504
 30
0.0
 10
55.691805
 20
8.630350
 30
0.0
 10
70.691738
 20
8.630350
 30
0.0
 10
70.691738
 20
14.980335
 30
0.0
 10
90.429156
 20
14.980335
 30
0.0
 10
90.429156
 20
8.630350
 30
0.0
 10
110.166571
 20
8.630350
 30
0.0
 10
110.166571
 20
14.980335
 30
0.0
 10
140.166489
 20
14.980335
 30
0.0
 10
140.166489
 20
8.630350
 30
0.0
 10
159.903908
 20
8.630350
 30
0.0
 10
159.903908
 20
14.980335
 30
0.0
 10
179.641323
 20
14.980335
 30
0.0
 10
179.641323
 20
8.630350
 30
0.0
 10
184.641299
 20
8.630350
 30
0.0
 10
184.641299
 20
3.630531
 30
0.0
  0
SPLINE
  5
272
100
AcDbEntity
  8
Layer_1
 62
7
100
AcDbSpline
 70
8
 71
3
 72
8
 73
4
 74
0
 40
0
 40
0
 40
0
 40
0
 40
1
 40
1
 40
1
 40
1
 10
177.691323
 20
-89.319218
 30
0.0
 10
177.691323
 20
-90.114819
 30
0.0
 10
177.375252
 20
-90.877877
 30
0.0
 10
176.812642
 20
-91.440645
 30
0.0
  0
SPLINE
  5
273
100
AcDbEntity
  8
Layer_1
 62
7
100
AcDbSpline
 70
8
 71
3
 72
8
 73
4
 74
0
 40
0
 40
0
 40
0
 40
0
 40
1
 40
1
 40
1
 40
1
 10
176.812642
 20
-91.440645
 30
0.0
 10
176.250036
 20
-92.003148
 30
0.0
 10
175.486978
 20
-92.319325
 30
0.0
 10
174.691327
 20
-92.319325
 30
0.0
  0
LWPOLYLINE
  5
274
100
AcDbEntity
  8
Layer_1
 62
7
100
AcDbPolyline
 90
2
 70
0
 10
72.641738
 20
-89.319218
 30
0.0
 10
72.641738
 20
-53.019251
 30
0.0
  0
SPLINE
  5
275
100
AcDbEntity
  8
Layer_1
 62
7
100
AcDbSpline
 70
8
 71
3
 72
8
 73
4
 74
0
 40
0
 40
0
 40
0
 40
0
 40
1
 40
1
 40
1
 40
1
 10
82.887199
 20
-54.219399
 30
0.0
 10
82.887199
 20
-53.174296
 30
0.0
 10
82.329696
 20
-52.208859
 30
0.0
 10
81.424692
 20
-51.686308
 30
0.0
  0
SPLINE
  5
276
100
AcDbEntity
  8
Layer_1
 62
7
100
AcDbSpline
 70
8
 71
3
 72
8
 73
4
 74
0
 40
0
 40
0
 40
0
 40
0
 40
1
 40
1
 40
1
 40
1
 10
81.424692
 20
-51.686308
 30
0.0
 10
80.519686
 20
-51.163757
 30
0.0
 10
79.404683
 20
-51.163757
 30
0.0
 10
78.499704
 20
-51.686308
 30
0.0
  0
SPLINE
  5
277
100
AcDbEntity
  8
Layer_1
 62
7
100
AcDbSpline
 70
8
 71
3
 72
8
 73
4
 74
0
 40
0
 40
0
 40
0
 40
0
 40
1
 40
1
 40
1
 40
1
 10
78.499704
 20
-51.686308
 30
0.0
 10
77.594700
 20
-52.208859
 30
0.0
 10
77.037197
 20
-53.174296
 30
0.0
 10
77.037197
 20
-54.219399
 30
0.0
  0
SPLINE
  5
278
100
AcDbEntity
  8
Layer_1
 62
7
100
AcDbSpline
 70
8
 71
3
 72
8
 73
4
 74
0
 40
0
 40
0
 40
0
 40
0
 40
1
 40
1
 40
1
 40
1
 10
77.037197
 20
-54.219399
 30
0.0
 10
77.037197
 20
-55.264237
 30
0.0
 10
77.594700
 20
-56.229965
 30
0.0
 10
78.499704
 20
-56.752517
 30
0.0
  0
SPLINE
  5
279
100
AcDbEntity
  8
Layer_1
 62
7
100
AcDbSpline
 70
8
 71
3
 72
8
 73
4
 74
0
 40
0
 40
0
 40
0
 40
0
 40
1
 40
1
 40
1
 40
1
 10
78.499704
 20
-56.752517
 30
0.0
 10
79.404683
 20
-57.275068
 30
0.0
 10
80.519686
 20
-57.275068
 30
0.0
 10
81.424692
 20
-56.752517
 30
0.0
  0
SPLINE
  5
27a
100
AcDbEntity
  8
Layer_1
 62
7
100
AcDbSpline
 70
8
 71
3
 72
8
 73
4
 74
0
 40
0
 40
0
 40
0
 40
0
 40
1
 40
1
 40
1
 40
1
 10
81.424692
 20
-56.752517
 30
0.0
 10
82.329696
 20
-56.229965
 30
0.0
 10
82.887199
 20
-55.264237
 30
0.0
 10
82.887199
 20
-54.219399
 30
0.0
  0
LWPOLYLINE
  5
27b
100
AcDbEntity
  8
Layer_1
 62
7
100
AcDbPolyline
 90
2
 70
0
 10
75.641710
 20
-50.019435
 30
0.0
 10
174.691327
 20
-50.019435
 30
0.0
  0
SPLINE
  5
27c
100
AcDbEntity
  8
Layer_1
 62
7
100
AcDbSpline
 70
8
 71
3
 72
8
 73
4
 74
0
 40
0
 40
0
 40
0
 40
0
 40
1
 40
1
 40
1
 40
1
 10
175.166330
 20
-71.169380
 30
0.0
 10
175.166330
 20
-70.642066
 30
0.0
 10
174.885872
 20
-70.154439
 30
0.0
 10
174.429284
 20
-69.890650
 30
0.0
  0
SPLINE
  5
27d
100
AcDbEntity
  8
Layer_1
 62
7
100
AcDbSpline
 70
8
 71
3
 72
8
 73
4
 74
0
 40
0
 40
0
 40
0
 40
0
 40
1
 40
1
 40
1
 40
1
 10
174.429284
 20
-69.890650
 30
0.0
 10
173.972693
 20
-69.626861
 30
0.0
 10
173.410004
 20
-69.626861
 30
0.0
 10
172.953414
 20
-69.890650
 30
0.0
  0
SPLINE
  5
27e
100
AcDbEntity
  8
Layer_1
 62
7
100
AcDbSpline
 70
8
 71
3
 72
8
 73
4
 74
0
 40
0
 40
0
 40
0
 40
0
 40
1
 40
1
 40
1
 40
1
 10
172.953414
 20
-69.890650
 30
0.0
 10
172.496823
 20
-70.154439
 30
0.0
 10
172.215812
 20
-70.642066
 30
0.0
 10
172.216341
 20
-71.169380
 30
0.0
  0
SPLINE
  5
27f
100
AcDbEntity
  8
Layer_1
 62
7
100
AcDbSpline
 70
8
 71
3
 72
8
 73
4
 74
0
 40
0
 40
0
 40
0
 40
0
 40
1
 40
1
 40
1
 40
1
 10
172.216341
 20
-71.169380
 30
0.0
 10
172.216341
 20
-71.696694
 30
0.0
 10
172.496823
 20
-72.184056
 30
0.0
 10
172.953414
 20
-72.447845
 30
0.0
  0
SPLINE
  5
280
100
AcDbEntity
  8
Layer_1
 62
7
100
AcDbSpline
 70
8
 71
3
 72
8
 73
4
 74
0
 40
0
 40
0
 40
0
 40
0
 40
1
 40
1
 40
1
 40
1
 10
172.953414
 20
-72.447845
 30
0.0
 10
173.410004
 20
-72.711899
 30
0.0
 10
173.972693
 20
-72.711899
 30
0.0
 10
174.429284
 20
-72.447845
 30
0.0
  0
SPLINE
  5
281
100
AcDbEntity
  8
Layer_1
 62
7
100
AcDbSpline
 70
8
 71
3
 72
8
 73
4
 74
0
 40
0
 40
0
 40
0
 40
0
 40
1
 40
1
 40
1
 40
1
 10
174.429284
 20
-72.447845
 30
0.0
 10
174.885872
 20
-72.184056
 30
0.0
 10
175.166886
 20
-71.696694
 30
0.0
 10
175.166330
 20
-71.169380
 30
0.0
  0
SPLINE
  5
282
100
AcDbEntity
  8
Layer_1
 62
7
100
AcDbSpline
 70
8
 71
3
 72
8
 73
4
 74
0
 40
0
 40
0
 40
0
 40
0
 40
1
 40
1
 40
1
 40
1
 10
173.236835
 20
-54.219399
 30
0.0
 10
173.236835
 20
-53.174296
 30
0.0
 10
172.679335
 20
-52.208859
 30
0.0
 10
171.774355
 20
-51.686308
 30
0.0
  0
SPLINE
  5
283
100
AcDbEntity
  8
Layer_1
 62
7
100
AcDbSpline
 70
8
 71
3
 72
8
 73
4
 74
0
 40
0
 40
0
 40
0
 40
0
 40
1
 40
1
 40
1
 40
1
 10
171.774355
 20
-51.686308
 30
0.0
 10
170.869349
 20
-51.163757
 30
0.0
 10
169.754346
 20
-51.163757
 30
0.0
 10
168.849340
 20
-51.686308
 30
0.0
  0
SPLINE
  5
284
100
AcDbEntity
  8
Layer_1
 62
7
100
AcDbSpline
 70
8
 71
3
 72
8
 73
4
 74
0
 40
0
 40
0
 40
0
 40
0
 40
1
 40
1
 40
1
 40
1
 10
168.849340
 20
-51.686308
 30
0.0
 10
167.944363
 20
-52.208859
 30
0.0
 10
167.386860
 20
-53.174296
 30
0.0
 10
167.386860
 20
-54.219399
 30
0.0
  0
SPLINE
  5
285
100
AcDbEntity
  8
Layer_1
 62
7
100
AcDbSpline
 70
8
 71
3
 72
8
 73
4
 74
0
 40
0
 40
0
 40
0
 40
0
 40
1
 40
1
 40
1
 40
1
 10
167.386860
 20
-54.219399
 30
0.0
 10
167.386860
 20
-55.264237
 30
0.0
 10
167.944363
 20
-56.229965
 30
0.0
 10
168.849340
 20
-56.752517
 30
0.0
  0
SPLINE
  5
286
100
AcDbEntity
  8
Layer_1
 62
7
100
AcDbSpline
 70
8
 71
3
 72
8
 73
4
 74
0
 40
0
 40
0
 40
0
 40
0
 40
1
 40
1
 40
1
 40
1
 10
168.849340
 20
-56.752517
 30
0.0
 10
169.754346
 20
-57.275068
 30
0.0
 10
170.869349
 20
-57.275068
 30
0.0
 10
171.774355
 20
-56.752517
 30
0.0
  0
SPLINE
  5
287
100
AcDbEntity
  8
Layer_1
 62
7
100
AcDbSpline
 70
8
 71
3
 72
8
 73
4
 74
0
 40
0
 40
0
 40
0
 40
0
 40
1
 40
1
 40
1
 40
1
 10
171.774355
 20
-56.752517
 30
0.0
 10
172.679335
 20
-56.229965
 30
0.0
 10
173.236835
 20
-55.264237
 30
0.0
 10
173.236835
 20
-54.219399
 30
0.0
  0
SPLINE
  5
288
100
AcDbEntity
  8
Layer_1
 62
7
100
AcDbSpline
 70
8
 71
3
 72
8
 73
4
 74
0
 40
0
 40
0
 40
0
 40
0
 40
1
 40
1
 40
1
 40
1
 10
78.116720
 20
-71.169380
 30
0.0
 10
78.116720
 20
-70.642066
 30
0.0
 10
77.836238
 20
-70.154439
 30
0.0
 10
77.379673
 20
-69.890650
 30
0.0
  0
SPLINE
  5
289
100
AcDbEntity
  8
Layer_1
 62
7
100
AcDbSpline
 70
8
 71
3
 72
8
 73
4
 74
0
 40
0
 40
0
 40
0
 40
0
 40
1
 40
1
 40
1
 40
1
 10
77.379673
 20
-69.890650
 30
0.0
 10
76.923083
 20
-69.626861
 30
0.0
 10
76.360367
 20
-69.626861
 30
0.0
 10
75.903779
 20
-69.890650
 30
0.0
  0
SPLINE
  5
28a
100
AcDbEntity
  8
Layer_1
 62
7
100
AcDbSpline
 70
8
 71
3
 72
8
 73
4
 74
0
 40
0
 40
0
 40
0
 40
0
 40
1
 40
1
 40
1
 40
1
 10
75.903779
 20
-69.890650
 30
0.0
 10
75.447188
 20
-70.154439
 30
0.0
 10
75.166175
 20
-70.642066
 30
0.0
 10
75.166730
 20
-71.169380
 30
0.0
  0
SPLINE
  5
28b
100
AcDbEntity
  8
Layer_1
 62
7
100
AcDbSpline
 70
8
 71
3
 72
8
 73
4
 74
0
 40
0
 40
0
 40
0
 40
0
 40
1
 40
1
 40
1
 40
1
 10
75.166730
 20
-71.169380
 30
0.0
 10
75.166730
 20
-71.696694
 30
0.0
 10
75.447188
 20
-72.184056
 30
0.0
 10
75.903779
 20
-72.447845
 30
0.0
  0
SPLINE
  5
28c
100
AcDbEntity
  8
Layer_1
 62
7
100
AcDbSpline
 70
8
 71
3
 72
8
 73
4
 74
0
 40
0
 40
0
 40
0
 40
0
 40
1
 40
1
 40
1
 40
1
 10
75.903779
 20
-72.447845
 30
0.0
 10
76.360367
 20
-72.711899
 30
0.0
 10
76.923083
 20
-72.711899
 30
0.0
 10
77.379673
 20
-72.447845
 30
0.0
  0
SPLINE
  5
28d
100
AcDbEntity
  8
Layer_1
 62
7
100
AcDbSpline
 70
8
 71
3
 72
8
 73
4
 74
0
 40
0
 40
0
 40
0
 40
0
 40
1
 40
1
 40
1
 40
1
 10
77.379673
 20
-72.447845
 30
0.0
 10
77.836238
 20
-72.184056
 30
0.0
 10
78.117249
 20
-71.696694
 30
0.0
 10
78.116720
 20
-71.169380
 30
0.0
  0
SPLINE
  5
28e
100
AcDbEntity
  8
Layer_1
 62
7
100
AcDbSpline
 70
8
 71
3
 72
8
 73
4
 74
0
 40
0
 40
0
 40
0
 40
0
 40
1
 40
1
 40
1
 40
1
 10
173.236835
 20
-88.119334
 30
0.0
 10
173.236835
 20
-87.074231
 30
0.0
 10
172.679335
 20
-86.108503
 30
0.0
 10
171.774355
 20
-85.586217
 30
0.0
  0
SPLINE
  5
28f
100
AcDbEntity
  8
Layer_1
 62
7
100
AcDbSpline
 70
8
 71
3
 72
8
 73
4
 74
0
 40
0
 40
0
 40
0
 40
0
 40
1
 40
1
 40
1
 40
1
 10
171.774355
 20
-85.586217
 30
0.0
 10
170.869349
 20
-85.063665
 30
0.0
 10
169.754346
 20
-85.063665
 30
0.0
 10
168.849340
 20
-85.586217
 30
0.0
  0
SPLINE
  5
290
100
AcDbEntity
  8
Layer_1
 62
7
100
AcDbSpline
 70
8
 71
3
 72
8
 73
4
 74
0
 40
0
 40
0
 40
0
 40
0
 40
1
 40
1
 40
1
 40
1
 10
168.849340
 20
-85.586217
 30
0.0
 10
167.944363
 20
-86.108503
 30
0.0
 10
167.386860
 20
-87.074231
 30
0.0
 10
167.386860
 20
-88.119334
 30
0.0
  0
SPLINE
  5
291
100
AcDbEntity
  8
Layer_1
 62
7
100
AcDbSpline
 70
8
 71
3
 72
8
 73
4
 74
0
 40
0
 40
0
 40
0
 40
0
 40
1
 40
1
 40
1
 40
1
 10
167.386860
 20
-88.119334
 30
0.0
 10
167.386860
 20
-89.164172
 30
0.0
 10
167.944363
 20
-90.129900
 30
0.0
 10
168.849340
 20
-90.652452
 30
0.0
  0
SPLINE
  5
292
100
AcDbEntity
  8
Layer_1
 62
7
100
AcDbSpline
 70
8
 71
3
 72
8
 73
4
 74
0
 40
0
 40
0
 40
0
 40
0
 40
1
 40
1
 40
1
 40
1
 10
168.849340
 20
-90.652452
 30
0.0
 10
169.754346
 20
-91.174739
 30
0.0
 10
170.869349
 20
-91.174739
 30
0.0
 10
171.774355
 20
-90.652452
 30
0.0
  0
SPLINE
  5
293
100
AcDbEntity
  8
Layer_1
 62
7
100
AcDbSpline
 70
8
 71
3
 72
8
 73
4
 74
0
 40
0
 40
0
 40
0
 40
0
 40
1
 40
1
 40
1
 40
1
 10
171.774355
 20
-90.652452
 30
0.0
 10
172.679335
 20
-90.129900
 30
0.0
 10
173.236835
 20
-89.164172
 30
0.0
 10
173.236835
 20
-88.119334
 30
0.0
  0
SPLINE
  5
294
100
AcDbEntity
  8
Layer_1
 62
7
100
AcDbSpline
 70
8
 71
3
 72
8
 73
4
 74
0
 40
0
 40
0
 40
0
 40
0
 40
1
 40
1
 40
1
 40
1
 10
104.157582
 20
-71.169380
 30
0.0
 10
104.161021
 20
-69.684540
 30
0.0
 10
103.370633
 20
-68.311090
 30
0.0
 10
102.085265
 20
-67.567611
 30
0.0
  0
SPLINE
  5
295
100
AcDbEntity
  8
Layer_1
 62
7
100
AcDbSpline
 70
8
 71
3
 72
8
 73
4
 74
0
 40
0
 40
0
 40
0
 40
0
 40
1
 40
1
 40
1
 40
1
 10
102.085265
 20
-67.567611
 30
0.0
 10
100.799896
 20
-66.824133
 30
0.0
 10
99.215309
 20
-66.824133
 30
0.0
 10
97.929941
 20
-67.567611
 30
0.0
  0
SPLINE
  5
296
100
AcDbEntity
  8
Layer_1
 62
7
100
AcDbSpline
 70
8
 71
3
 72
8
 73
4
 74
0
 40
0
 40
0
 40
0
 40
0
 40
1
 40
1
 40
1
 40
1
 10
97.929941
 20
-67.567611
 30
0.0
 10
96.644573
 20
-68.311090
 30
0.0
 10
95.854316
 20
-69.684540
 30
0.0
 10
95.857624
 20
-71.169380
 30
0.0
  0
SPLINE
  5
297
100
AcDbEntity
  8
Layer_1
 62
7
100
AcDbSpline
 70
8
 71
3
 72
8
 73
4
 74
0
 40
0
 40
0
 40
0
 40
0
 40
1
 40
1
 40
1
 40
1
 10
95.857624
 20
-71.169380
 30
0.0
 10
95.854184
 20
-72.654220
 30
0.0
 10
96.644573
 20
-74.027644
 30
0.0
 10
97.929941
 20
-74.770857
 30
0.0
  0
SPLINE
  5
298
100
AcDbEntity
  8
Layer_1
 62
7
100
AcDbSpline
 70
8
 71
3
 72
8
 73
4
 74
0
 40
0
 40
0
 40
0
 40
0
 40
1
 40
1
 40
1
 40
1
 10
97.929941
 20
-74.770857
 30
0.0
 10
99.215309
 20
-75.514335
 30
0.0
 10
100.799896
 20
-75.514335
 30
0.0
 10
102.085265
 20
-74.770857
 30
0.0
  0
SPLINE
  5
299
100
AcDbEntity
  8
Layer_1
 62
7
100
AcDbSpline
 70
8
 71
3
 72
8
 73
4
 74
0
 40
0
 40
0
 40
0
 40
0
 40
1
 40
1
 40
1
 40
1
 10
102.085265
 20
-74.770857
 30
0.0
 10
103.370633
 20
-74.027644
 30
0.0
 10
104.160889
 20
-72.654220
 30
0.0
 10
104.157582
 20
-71.169380
 30
0.0
  0
SPLINE
  5
29a
100
AcDbEntity
  8
Layer_1
 62
7
100
AcDbSpline
 70
8
 71
3
 72
8
 73
4
 74
0
 40
0
 40
0
 40
0
 40
0
 40
1
 40
1
 40
1
 40
1
 10
125.137029
 20
-56.369401
 30
0.0
 10
119.842596
 20
-56.358817
 30
0.0
 10
114.945887
 20
-59.177420
 30
0.0
 10
112.295668
 20
-63.760791
 30
0.0
  0
SPLINE
  5
29b
100
AcDbEntity
  8
Layer_1
 62
7
100
AcDbSpline
 70
8
 71
3
 72
8
 73
4
 74
0
 40
0
 40
0
 40
0
 40
0
 40
1
 40
1
 40
1
 40
1
 10
112.295668
 20
-63.760791
 30
0.0
 10
109.645422
 20
-68.344427
 30
0.0
 10
109.645422
 20
-73.994306
 30
0.0
 10
112.295668
 20
-78.577677
 30
0.0
  0
SPLINE
  5
29c
100
AcDbEntity
  8
Layer_1
 62
7
100
AcDbSpline
 70
8
 71
3
 72
8
 73
4
 74
0
 40
0
 40
0
 40
0
 40
0
 40
1
 40
1
 40
1
 40
1
 10
112.295668
 20
-78.577677
 30
0.0
 10
114.945887
 20
-83.161049
 30
0.0
 10
119.842596
 20
-85.979651
 30
0.0
 10
125.137029
 20
-85.969333
 30
0.0
  0
SPLINE
  5
29d
100
AcDbEntity
  8
Layer_1
 62
7
100
AcDbSpline
 70
8
 71
3
 72
8
 73
4
 74
0
 40
0
 40
0
 40
0
 40
0
 40
1
 40
1
 40
1
 40
1
 10
125.137029
 20
-85.969333
 30
0.0
 10
130.431436
 20
-85.979916
 30
0.0
 10
135.328145
 20
-83.161049
 30
0.0
 10
137.978391
 20
-78.577677
 30
0.0
  0
SPLINE
  5
29e
100
AcDbEntity
  8
Layer_1
 62
7
100
AcDbSpline
 70
8
 71
3
 72
8
 73
4
 74
0
 40
0
 40
0
 40
0
 40
0
 40
1
 40
1
 40
1
 40
1
 10
137.978391
 20
-78.577677
 30
0.0
 10
140.628607
 20
-73.994306
 30
0.0
 10
140.628607
 20
-68.344427
 30
0.0
 10
137.978391
 20
-63.760791
 30
0.0
  0
SPLINE
  5
29f
100
AcDbEntity
  8
Layer_1
 62
7
100
AcDbSpline
 70
8
 71
3
 72
8
 73
4
 74
0
 40
0
 40
0
 40
0
 40
0
 40
1
 40
1
 40
1
 40
1
 10
137.978391
 20
-63.760791
 30
0.0
 10
135.328145
 20
-59.177420
 30
0.0
 10
130.431436
 20
-56.359082
 30
0.0
 10
125.137029
 20
-56.369401
 30
0.0
  0
SPLINE
  5
2a0
100
AcDbEntity
  8
Layer_1
 62
7
100
AcDbSpline
 70
8
 71
3
 72
8
 73
4
 74
0
 40
0
 40
0
 40
0
 40
0
 40
1
 40
1
 40
1
 40
1
 10
154.357380
 20
-71.169380
 30
0.0
 10
154.357380
 20
-69.686657
 30
0.0
 10
153.566409
 20
-68.316646
 30
0.0
 10
152.282390
 20
-67.575284
 30
0.0
  0
SPLINE
  5
2a1
100
AcDbEntity
  8
Layer_1
 62
7
100
AcDbSpline
 70
8
 71
3
 72
8
 73
4
 74
0
 40
0
 40
0
 40
0
 40
0
 40
1
 40
1
 40
1
 40
1
 10
152.282390
 20
-67.575284
 30
0.0
 10
150.998372
 20
-66.833923
 30
0.0
 10
149.416404
 20
-66.833923
 30
0.0
 10
148.132411
 20
-67.575284
 30
0.0
  0
SPLINE
  5
2a2
100
AcDbEntity
  8
Layer_1
 62
7
100
AcDbSpline
 70
8
 71
3
 72
8
 73
4
 74
0
 40
0
 40
0
 40
0
 40
0
 40
1
 40
1
 40
1
 40
1
 10
148.132411
 20
-67.575284
 30
0.0
 10
146.848393
 20
-68.316646
 30
0.0
 10
146.057422
 20
-69.686657
 30
0.0
 10
146.057422
 20
-71.169380
 30
0.0
  0
SPLINE
  5
2a3
100
AcDbEntity
  8
Layer_1
 62
7
100
AcDbSpline
 70
8
 71
3
 72
8
 73
4
 74
0
 40
0
 40
0
 40
0
 40
0
 40
1
 40
1
 40
1
 40
1
 10
146.057422
 20
-71.169380
 30
0.0
 10
146.057422
 20
-72.651838
 30
0.0
 10
146.848393
 20
-74.021823
 30
0.0
 10
148.132411
 20
-74.763184
 30
0.0
  0
SPLINE
  5
2a4
100
AcDbEntity
  8
Layer_1
 62
7
100
AcDbSpline
 70
8
 71
3
 72
8
 73
4
 74
0
 40
0
 40
0
 40
0
 40
0
 40
1
 40
1
 40
1
 40
1
 10
148.132411
 20
-74.763184
 30
0.0
 10
149.416404
 20
-75.504546
 30
0.0
 10
150.998372
 20
-75.504546
 30
0.0
 10
152.282390
 20
-74.763184
 30
0.0
  0
SPLINE
  5
2a5
100
AcDbEntity
  8
Layer_1
 62
7
100
AcDbSpline
 70
8
 71
3
 72
8
 73
4
 74
0
 40
0
 40
0
 40
0
 40
0
 40
1
 40
1
 40
1
 40
1
 10
152.282390
 20
-74.763184
 30
0.0
 10
153.566409
 20
-74.021823
 30
0.0
 10
154.357380
 20
-72.651838
 30
0.0
 10
154.357380
 20
-71.169380
 30
0.0
  0
SPLINE
  5
2a6
100
AcDbEntity
  8
Layer_1
 62
7
100
AcDbSpline
 70
8
 71
3
 72
8
 73
4
 74
0
 40
0
 40
0
 40
0
 40
0
 40
1
 40
1
 40
1
 40
1
 10
82.887199
 20
-88.119334
 30
0.0
 10
82.887199
 20
-87.074231
 30
0.0
 10
82.329696
 20
-86.108503
 30
0.0
 10
81.424692
 20
-85.586217
 30
0.0
  0
SPLINE
  5
2a7
100
AcDbEntity
  8
Layer_1
 62
7
100
AcDbSpline
 70
8
 71
3
 72
8
 73
4
 74
0
 40
0
 40
0
 40
0
 40
0
 40
1
 40
1
 40
1
 40
1
 10
81.424692
 20
-85.586217
 30
0.0
 10
80.519686
 20
-85.063665
 30
0.0
 10
79.404683
 20
-85.063665
 30
0.0
 10
78.499704
 20
-85.586217
 30
0.0
  0
SPLINE
  5
2a8
100
AcDbEntity
  8
Layer_1
 62
7
100
AcDbSpline
 70
8
 71
3
 72
8
 73
4
 74
0
 40
0
 40
0
 40
0
 40
0
 40
1
 40
1
 40
1
 40
1
 10
78.499704
 20
-85.586217
 30
0.0
 10
77.594700
 20
-86.108503
 30
0.0
 10
77.037197
 20
-87.074231
 30
0.0
 10
77.037197
 20
-88.119334
 30
0.0
  0
SPLINE
  5
2a9
100
AcDbEntity
  8
Layer_1
 62
7
100
AcDbSpline
 70
8
 71
3
 72
8
 73
4
 74
0
 40
0
 40
0
 40
0
 40
0
 40
1
 40
1
 40
1
 40
1
 10
77.037197
 20
-88.119334
 30
0.0
 10
77.037197
 20
-89.164172
 30
0.0
 10
77.594700
 20
-90.129900
 30
0.0
 10
78.499704
 20
-90.652452
 30
0.0
  0
SPLINE
  5
2aa
100
AcDbEntity
  8
Layer_1
 62
7
100
AcDbSpline
 70
8
 71
3
 72
8
 73
4
 74
0
 40
0
 40
0
 40
0
 40
0
 40
1
 40
1
 40
1
 40
1
 10
78.499704
 20
-90.652452
 30
0.0
 10
79.404683
 20
-91.174739
 30
0.0
 10
80.519686
 20
-91.174739
 30
0.0
 10
81.424692
 20
-90.652452
 30
0.0
  0
SPLINE
  5
2ab
100
AcDbEntity
  8
Layer_1
 62
7
100
AcDbSpline
 70
8
 71
3
 72
8
 73
4
 74
0
 40
0
 40
0
 40
0
 40
0
 40
1
 40
1
 40
1
 40
1
 10
81.424692
 20
-90.652452
 30
0.0
 10
82.329696
 20
-90.129900
 30
0.0
 10
82.887199
 20
-89.164172
 30
0.0
 10
82.887199
 20
-88.119334
 30
0.0
  0
SPLINE
  5
2ac
100
AcDbEntity
  8
Layer_1
 62
7
100
AcDbSpline
 70
8
 71
3
 72
8
 73
4
 74
0
 40
0
 40
0
 40
0
 40
0
 40
1
 40
1
 40
1
 40
1
 10
174.691327
 20
-133.719103
 30
0.0
 10
176.348170
 20
-133.719103
 30
0.0
 10
177.691323
 20
-135.062126
 30
0.0
 10
177.691323
 20
-136.718945
 30
0.0
  0
SPLINE
  5
2ad
100
AcDbEntity
  8
Layer_1
 62
7
100
AcDbSpline
 70
8
 71
3
 72
8
 73
4
 74
0
 40
0
 40
0
 40
0
 40
0
 40
1
 40
1
 40
1
 40
1
 10
177.691323
 20
-141.618996
 30
0.0
 10
177.691323
 20
-142.414597
 30
0.0
 10
177.375252
 20
-143.177654
 30
0.0
 10
176.812642
 20
-143.740422
 30
0.0
  0
SPLINE
  5
2ae
100
AcDbEntity
  8
Layer_1
 62
7
100
AcDbSpline
 70
8
 71
3
 72
8
 73
4
 74
0
 40
0
 40
0
 40
0
 40
0
 40
1
 40
1
 40
1
 40
1
 10
176.812642
 20
-143.740422
 30
0.0
 10
176.250036
 20
-144.302926
 30
0.0
 10
175.486978
 20
-144.619102
 30
0.0
 10
174.691327
 20
-144.619102
 30
0.0
  0
LWPOLYLINE
  5
2af
100
AcDbEntity
  8
Layer_1
 62
7
100
AcDbPolyline
 90
2
 70
0
 10
177.691323
 20
-53.019251
 30
0.0
 10
177.691323
 20
-89.319218
 30
0.0
  0
SPLINE
  5
2b0
100
AcDbEntity
  8
Layer_1
 62
7
100
AcDbSpline
 70
8
 71
3
 72
8
 73
4
 74
0
 40
0
 40
0
 40
0
 40
0
 40
1
 40
1
 40
1
 40
1
 10
72.641738
 20
-136.718945
 30
0.0
 10
72.641764
 20
-135.062126
 30
0.0
 10
73.984865
 20
-133.719103
 30
0.0
 10
75.641710
 20
-133.719103
 30
0.0
  0
LWPOLYLINE
  5
2b1
100
AcDbEntity
  8
Layer_1
 62
7
100
AcDbPolyline
 90
2
 70
0
 10
174.691327
 20
-92.319325
 30
0.0
 10
75.641710
 20
-92.319325
 30
0.0
  0
SPLINE
  5
2b2
100
AcDbEntity
  8
Layer_1
 62
7
100
AcDbSpline
 70
8
 71
3
 72
8
 73
4
 74
0
 40
0
 40
0
 40
0
 40
0
 40
1
 40
1
 40
1
 40
1
 10
75.641710
 20
-113.219239
 30
0.0
 10
73.984865
 20
-113.219239
 30
0.0
 10
72.641764
 20
-111.875951
 30
0.0
 10
72.641738
 20
-110.219132
 30
0.0
  0
LWPOLYLINE
  5
2b3
100
AcDbEntity
  8
Layer_1
 62
7
100
AcDbPolyline
 90
2
 70
0
 10
177.691323
 20
-136.718945
 30
0.0
 10
177.691323
 20
-141.618996
 30
0.0
  0
SPLINE
  5
2b4
100
AcDbEntity
  8
Layer_1
 62
7
100
AcDbSpline
 70
8
 71
3
 72
8
 73
4
 74
0
 40
0
 40
0
 40
0
 40
0
 40
1
 40
1
 40
1
 40
1
 10
72.641738
 20
-105.319055
 30
0.0
 10
72.641738
 20
-103.662236
 30
0.0
 10
73.984865
 20
-102.319213
 30
0.0
 10
75.641710
 20
-102.319213
 30
0.0
  0
LWPOLYLINE
  5
2b5
100
AcDbEntity
  8
Layer_1
 62
7
100
AcDbPolyline
 90
3
 70
0
 10
174.691327
 20
-144.619102
 30
0.0
 10
72.641738
 20
-144.619102
 30
0.0
 10
72.641738
 20
-136.718945
 30
0.0
  0
SPLINE
  5
2b6
100
AcDbEntity
  8
Layer_1
 62
7
100
AcDbSpline
 70
8
 71
3
 72
8
 73
4
 74
0
 40
0
 40
0
 40
0
 40
0
 40
1
 40
1
 40
1
 40
1
 10
174.691327
 20
-102.319213
 30
0.0
 10
175.486978
 20
-102.319213
 30
0.0
 10
176.250036
 20
-102.635125
 30
0.0
 10
176.812642
 20
-103.197893
 30
0.0
  0
SPLINE
  5
2b7
100
AcDbEntity
  8
Layer_1
 62
7
100
AcDbSpline
 70
8
 71
3
 72
8
 73
4
 74
0
 40
0
 40
0
 40
0
 40
0
 40
1
 40
1
 40
1
 40
1
 10
176.812642
 20
-103.197893
 30
0.0
 10
177.375252
 20
-103.760396
 30
0.0
 10
177.691323
 20
-104.523454
 30
0.0
 10
177.691323
 20
-105.319055
 30
0.0
  0
LWPOLYLINE
  5
2b8
100
AcDbEntity
  8
Layer_1
 62
7
100
AcDbPolyline
 90
4
 70
0
 10
75.641710
 20
-133.719103
 30
0.0
 10
81.641703
 20
-133.719103
 30
0.0
 10
81.641703
 20
-113.219239
 30
0.0
 10
75.641710
 20
-113.219239
 30
0.0
  0
SPLINE
  5
2b9
100
AcDbEntity
  8
Layer_1
 62
7
100
AcDbSpline
 70
8
 71
3
 72
8
 73
4
 74
0
 40
0
 40
0
 40
0
 40
0
 40
1
 40
1
 40
1
 40
1
 10
177.691323
 20
-110.219132
 30
0.0
 10
177.691323
 20
-111.875951
 30
0.0
 10
176.348170
 20
-113.219239
 30
0.0
 10
174.691327
 20
-113.219239
 30
0.0
  0
LWPOLYLINE
  5
2ba
100
AcDbEntity
  8
Layer_1
 62
7
100
AcDbPolyline
 90
2
 70
0
 10
72.641738
 20
-110.219132
 30
0.0
 10
72.641738
 20
-105.319055
 30
0.0
  0
SPLINE
  5
2bb
100
AcDbEntity
  8
Layer_1
 62
7
100
AcDbSpline
 70
8
 71
3
 72
8
 73
4
 74
0
 40
0
 40
0
 40
0
 40
0
 40
1
 40
1
 40
1
 40
1
 10
139.966465
 20
-123.469158
 30
0.0
 10
139.969375
 20
-118.179614
 30
0.0
 10
137.149055
 20
-113.290941
 30
0.0
 10
132.568785
 20
-110.645375
 30
0.0
  0
SPLINE
  5
2bc
100
AcDbEntity
  8
Layer_1
 62
7
100
AcDbSpline
 70
8
 71
3
 72
8
 73
4
 74
0
 40
0
 40
0
 40
0
 40
0
 40
1
 40
1
 40
1
 40
1
 10
132.568785
 20
-110.645375
 30
0.0
 10
127.988491
 20
-107.999810
 30
0.0
 10
122.344544
 20
-107.999810
 30
0.0
 10
117.764273
 20
-110.645375
 30
0.0
  0
SPLINE
  5
2bd
100
AcDbEntity
  8
Layer_1
 62
7
100
AcDbSpline
 70
8
 71
3
 72
8
 73
4
 74
0
 40
0
 40
0
 40
0
 40
0
 40
1
 40
1
 40
1
 40
1
 10
117.764273
 20
-110.645375
 30
0.0
 10
113.183979
 20
-113.290941
 30
0.0
 10
110.363739
 20
-118.179614
 30
0.0
 10
110.366570
 20
-123.469158
 30
0.0
  0
SPLINE
  5
2be
100
AcDbEntity
  8
Layer_1
 62
7
100
AcDbSpline
 70
8
 71
3
 72
8
 73
4
 74
0
 40
0
 40
0
 40
0
 40
0
 40
1
 40
1
 40
1
 40
1
 10
110.366570
 20
-123.469158
 30
0.0
 10
110.363659
 20
-128.758436
 30
0.0
 10
113.183979
 20
-133.647401
 30
0.0
 10
117.764273
 20
-136.292702
 30
0.0
  0
SPLINE
  5
2bf
100
AcDbEntity
  8
Layer_1
 62
7
100
AcDbSpline
 70
8
 71
3
 72
8
 73
4
 74
0
 40
0
 40
0
 40
0
 40
0
 40
1
 40
1
 40
1
 40
1
 10
117.764273
 20
-136.292702
 30
0.0
 10
122.344544
 20
-138.938241
 30
0.0
 10
127.988491
 20
-138.938241
 30
0.0
 10
132.568785
 20
-136.292702
 30
0.0
  0
SPLINE
  5
2c0
100
AcDbEntity
  8
Layer_1
 62
7
100
AcDbSpline
 70
8
 71
3
 72
8
 73
4
 74
0
 40
0
 40
0
 40
0
 40
0
 40
1
 40
1
 40
1
 40
1
 10
132.568785
 20
-136.292702
 30
0.0
 10
137.149055
 20
-133.647401
 30
0.0
 10
139.969296
 20
-128.758436
 30
0.0
 10
139.966465
 20
-123.469158
 30
0.0
  0
LWPOLYLINE
  5
2c1
100
AcDbEntity
  8
Layer_1
 62
7
100
AcDbPolyline
 90
2
 70
0
 10
75.641710
 20
-102.319213
 30
0.0
 10
174.691327
 20
-102.319213
 30
0.0
  0
SPLINE
  5
2c2
100
AcDbEntity
  8
Layer_1
 62
7
100
AcDbSpline
 70
8
 71
3
 72
8
 73
4
 74
0
 40
0
 40
0
 40
0
 40
0
 40
1
 40
1
 40
1
 40
1
 10
173.295863
 20
-140.419112
 30
0.0
 10
173.295863
 20
-139.374009
 30
0.0
 10
172.738361
 20
-138.408281
 30
0.0
 10
171.833383
 20
-137.885994
 30
0.0
  0
SPLINE
  5
2c3
100
AcDbEntity
  8
Layer_1
 62
7
100
AcDbSpline
 70
8
 71
3
 72
8
 73
4
 74
0
 40
0
 40
0
 40
0
 40
0
 40
1
 40
1
 40
1
 40
1
 10
171.833383
 20
-137.885994
 30
0.0
 10
170.928377
 20
-137.363443
 30
0.0
 10
169.813374
 20
-137.363443
 30
0.0
 10
168.908368
 20
-137.885994
 30
0.0
  0
SPLINE
  5
2c4
100
AcDbEntity
  8
Layer_1
 62
7
100
AcDbSpline
 70
8
 71
3
 72
8
 73
4
 74
0
 40
0
 40
0
 40
0
 40
0
 40
1
 40
1
 40
1
 40
1
 10
168.908368
 20
-137.885994
 30
0.0
 10
168.003391
 20
-138.408281
 30
0.0
 10
167.445888
 20
-139.374009
 30
0.0
 10
167.445888
 20
-140.419112
 30
0.0
  0
SPLINE
  5
2c5
100
AcDbEntity
  8
Layer_1
 62
7
100
AcDbSpline
 70
8
 71
3
 72
8
 73
4
 74
0
 40
0
 40
0
 40
0
 40
0
 40
1
 40
1
 40
1
 40
1
 10
167.445888
 20
-140.419112
 30
0.0
 10
167.445888
 20
-141.463950
 30
0.0
 10
168.003391
 20
-142.429678
 30
0.0
 10
168.908368
 20
-142.952229
 30
0.0
  0
SPLINE
  5
2c6
100
AcDbEntity
  8
Layer_1
 62
7
100
AcDbSpline
 70
8
 71
3
 72
8
 73
4
 74
0
 40
0
 40
0
 40
0
 40
0
 40
1
 40
1
 40
1
 40
1
 10
168.908368
 20
-142.952229
 30
0.0
 10
169.813374
 20
-143.474516
 30
0.0
 10
170.928377
 20
-143.474516
 30
0.0
 10
171.833383
 20
-142.952229
 30
0.0
  0
SPLINE
  5
2c7
100
AcDbEntity
  8
Layer_1
 62
7
100
AcDbSpline
 70
8
 71
3
 72
8
 73
4
 74
0
 40
0
 40
0
 40
0
 40
0
 40
1
 40
1
 40
1
 40
1
 10
171.833383
 20
-142.952229
 30
0.0
 10
172.738361
 20
-142.429678
 30
0.0
 10
173.295863
 20
-141.463950
 30
0.0
 10
173.295863
 20
-140.419112
 30
0.0
  0
SPLINE
  5
2c8
100
AcDbEntity
  8
Layer_1
 62
7
100
AcDbSpline
 70
8
 71
3
 72
8
 73
4
 74
0
 40
0
 40
0
 40
0
 40
0
 40
1
 40
1
 40
1
 40
1
 10
103.125658
 20
-123.469158
 30
0.0
 10
103.125658
 20
-122.397332
 30
0.0
 10
102.553841
 20
-121.406998
 30
0.0
 10
101.625657
 20
-120.870952
 30
0.0
  0
SPLINE
  5
2c9
100
AcDbEntity
  8
Layer_1
 62
7
100
AcDbSpline
 70
8
 71
3
 72
8
 73
4
 74
0
 40
0
 40
0
 40
0
 40
0
 40
1
 40
1
 40
1
 40
1
 10
101.625657
 20
-120.870952
 30
0.0
 10
100.697450
 20
-120.335172
 30
0.0
 10
99.553869
 20
-120.335172
 30
0.0
 10
98.625662
 20
-120.870952
 30
0.0
  0
SPLINE
  5
2ca
100
AcDbEntity
  8
Layer_1
 62
7
100
AcDbSpline
 70
8
 71
3
 72
8
 73
4
 74
0
 40
0
 40
0
 40
0
 40
0
 40
1
 40
1
 40
1
 40
1
 10
98.625662
 20
-120.870952
 30
0.0
 10
97.697452
 20
-121.406998
 30
0.0
 10
97.125661
 20
-122.397332
 30
0.0
 10
97.125661
 20
-123.469158
 30
0.0
  0
SPLINE
  5
2cb
100
AcDbEntity
  8
Layer_1
 62
7
100
AcDbSpline
 70
8
 71
3
 72
8
 73
4
 74
0
 40
0
 40
0
 40
0
 40
0
 40
1
 40
1
 40
1
 40
1
 10
97.125661
 20
-123.469158
 30
0.0
 10
97.125661
 20
-124.540983
 30
0.0
 10
97.697452
 20
-125.531317
 30
0.0
 10
98.625662
 20
-126.067098
 30
0.0
  0
SPLINE
  5
2cc
100
AcDbEntity
  8
Layer_1
 62
7
100
AcDbSpline
 70
8
 71
3
 72
8
 73
4
 74
0
 40
0
 40
0
 40
0
 40
0
 40
1
 40
1
 40
1
 40
1
 10
98.625662
 20
-126.067098
 30
0.0
 10
99.553869
 20
-126.603143
 30
0.0
 10
100.697450
 20
-126.603143
 30
0.0
 10
101.625657
 20
-126.067098
 30
0.0
  0
SPLINE
  5
2cd
100
AcDbEntity
  8
Layer_1
 62
7
100
AcDbSpline
 70
8
 71
3
 72
8
 73
4
 74
0
 40
0
 40
0
 40
0
 40
0
 40
1
 40
1
 40
1
 40
1
 10
101.625657
 20
-126.067098
 30
0.0
 10
102.553841
 20
-125.531317
 30
0.0
 10
103.125658
 20
-124.540983
 30
0.0
 10
103.125658
 20
-123.469158
 30
0.0
  0
SPLINE
  5
2ce
100
AcDbEntity
  8
Layer_1
 62
7
100
AcDbSpline
 70
8
 71
3
 72
8
 73
4
 74
0
 40
0
 40
0
 40
0
 40
0
 40
1
 40
1
 40
1
 40
1
 10
82.946201
 20
-106.519203
 30
0.0
 10
82.948847
 20
-105.472777
 30
0.0
 10
82.391000
 20
-104.505197
 30
0.0
 10
81.485229
 20
-103.981588
 30
0.0
  0
SPLINE
  5
2cf
100
AcDbEntity
  8
Layer_1
 62
7
100
AcDbSpline
 70
8
 71
3
 72
8
 73
4
 74
0
 40
0
 40
0
 40
0
 40
0
 40
1
 40
1
 40
1
 40
1
 10
81.485229
 20
-103.981588
 30
0.0
 10
80.579456
 20
-103.457978
 30
0.0
 10
79.462944
 20
-103.457978
 30
0.0
 10
78.557197
 20
-103.981588
 30
0.0
  0
SPLINE
  5
2d0
100
AcDbEntity
  8
Layer_1
 62
7
100
AcDbSpline
 70
8
 71
3
 72
8
 73
4
 74
0
 40
0
 40
0
 40
0
 40
0
 40
1
 40
1
 40
1
 40
1
 10
78.557197
 20
-103.981588
 30
0.0
 10
77.651427
 20
-104.505197
 30
0.0
 10
77.094321
 20
-105.472777
 30
0.0
 10
77.096226
 20
-106.519203
 30
0.0
  0
SPLINE
  5
2d1
100
AcDbEntity
  8
Layer_1
 62
7
100
AcDbSpline
 70
8
 71
3
 72
8
 73
4
 74
0
 40
0
 40
0
 40
0
 40
0
 40
1
 40
1
 40
1
 40
1
 10
77.096226
 20
-106.519203
 30
0.0
 10
77.093580
 20
-107.565364
 30
0.0
 10
77.651427
 20
-108.532944
 30
0.0
 10
78.557197
 20
-109.056554
 30
0.0
  0
SPLINE
  5
2d2
100
AcDbEntity
  8
Layer_1
 62
7
100
AcDbSpline
 70
8
 71
3
 72
8
 73
4
 74
0
 40
0
 40
0
 40
0
 40
0
 40
1
 40
1
 40
1
 40
1
 10
78.557197
 20
-109.056554
 30
0.0
 10
79.462944
 20
-109.580429
 30
0.0
 10
80.579456
 20
-109.580429
 30
0.0
 10
81.485229
 20
-109.056554
 30
0.0
  0
SPLINE
  5
2d3
100
AcDbEntity
  8
Layer_1
 62
7
100
AcDbSpline
 70
8
 71
3
 72
8
 73
4
 74
0
 40
0
 40
0
 40
0
 40
0
 40
1
 40
1
 40
1
 40
1
 10
81.485229
 20
-109.056554
 30
0.0
 10
82.391000
 20
-108.532944
 30
0.0
 10
82.948079
 20
-107.565364
 30
0.0
 10
82.946201
 20
-106.519203
 30
0.0
  0
SPLINE
  5
2d4
100
AcDbEntity
  8
Layer_1
 62
7
100
AcDbSpline
 70
8
 71
3
 72
8
 73
4
 74
0
 40
0
 40
0
 40
0
 40
0
 40
1
 40
1
 40
1
 40
1
 10
153.325453
 20
-123.469158
 30
0.0
 10
153.325453
 20
-122.397332
 30
0.0
 10
152.753666
 20
-121.406998
 30
0.0
 10
151.825456
 20
-120.870952
 30
0.0
  0
SPLINE
  5
2d5
100
AcDbEntity
  8
Layer_1
 62
7
100
AcDbSpline
 70
8
 71
3
 72
8
 73
4
 74
0
 40
0
 40
0
 40
0
 40
0
 40
1
 40
1
 40
1
 40
1
 10
151.825456
 20
-120.870952
 30
0.0
 10
150.897275
 20
-120.335172
 30
0.0
 10
149.753668
 20
-120.335172
 30
0.0
 10
148.825460
 20
-120.870952
 30
0.0
  0
SPLINE
  5
2d6
100
AcDbEntity
  8
Layer_1
 62
7
100
AcDbSpline
 70
8
 71
3
 72
8
 73
4
 74
0
 40
0
 40
0
 40
0
 40
0
 40
1
 40
1
 40
1
 40
1
 10
148.825460
 20
-120.870952
 30
0.0
 10
147.897277
 20
-121.406998
 30
0.0
 10
147.325486
 20
-122.397332
 30
0.0
 10
147.325486
 20
-123.469158
 30
0.0
  0
SPLINE
  5
2d7
100
AcDbEntity
  8
Layer_1
 62
7
100
AcDbSpline
 70
8
 71
3
 72
8
 73
4
 74
0
 40
0
 40
0
 40
0
 40
0
 40
1
 40
1
 40
1
 40
1
 10
147.325486
 20
-123.469158
 30
0.0
 10
147.325486
 20
-124.540983
 30
0.0
 10
147.897277
 20
-125.531317
 30
0.0
 10
148.825460
 20
-126.067098
 30
0.0
  0
SPLINE
  5
2d8
100
AcDbEntity
  8
Layer_1
 62
7
100
AcDbSpline
 70
8
 71
3
 72
8
 73
4
 74
0
 40
0
 40
0
 40
0
 40
0
 40
1
 40
1
 40
1
 40
1
 10
148.825460
 20
-126.067098
 30
0.0
 10
149.753668
 20
-126.603143
 30
0.0
 10
150.897275
 20
-126.603143
 30
0.0
 10
151.825456
 20
-126.067098
 30
0.0
  0
SPLINE
  5
2d9
100
AcDbEntity
  8
Layer_1
 62
7
100
AcDbSpline
 70
8
 71
3
 72
8
 73
4
 74
0
 40
0
 40
0
 40
0
 40
0
 40
1
 40
1
 40
1
 40
1
 10
151.825456
 20
-126.067098
 30
0.0
 10
152.753666
 20
-125.531317
 30
0.0
 10
153.325453
 20
-124.540983
 30
0.0
 10
153.325453
 20
-123.469158
 30
0.0
  0
SPLINE
  5
2da
100
AcDbEntity
  8
Layer_1
 62
7
100
AcDbSpline
 70
8
 71
3
 72
8
 73
4
 74
0
 40
0
 40
0
 40
0
 40
0
 40
1
 40
1
 40
1
 40
1
 10
82.946201
 20
-140.419112
 30
0.0
 10
82.948847
 20
-139.372686
 30
0.0
 10
82.391000
 20
-138.405106
 30
0.0
 10
81.485229
 20
-137.881496
 30
0.0
  0
SPLINE
  5
2db
100
AcDbEntity
  8
Layer_1
 62
7
100
AcDbSpline
 70
8
 71
3
 72
8
 73
4
 74
0
 40
0
 40
0
 40
0
 40
0
 40
1
 40
1
 40
1
 40
1
 10
81.485229
 20
-137.881496
 30
0.0
 10
80.579456
 20
-137.357886
 30
0.0
 10
79.462944
 20
-137.357886
 30
0.0
 10
78.557197
 20
-137.881496
 30
0.0
  0
SPLINE
  5
2dc
100
AcDbEntity
  8
Layer_1
 62
7
100
AcDbSpline
 70
8
 71
3
 72
8
 73
4
 74
0
 40
0
 40
0
 40
0
 40
0
 40
1
 40
1
 40
1
 40
1
 10
78.557197
 20
-137.881496
 30
0.0
 10
77.651427
 20
-138.405106
 30
0.0
 10
77.094321
 20
-139.372686
 30
0.0
 10
77.096226
 20
-140.419112
 30
0.0
  0
SPLINE
  5
2dd
100
AcDbEntity
  8
Layer_1
 62
7
100
AcDbSpline
 70
8
 71
3
 72
8
 73
4
 74
0
 40
0
 40
0
 40
0
 40
0
 40
1
 40
1
 40
1
 40
1
 10
77.096226
 20
-140.419112
 30
0.0
 10
77.093580
 20
-141.465273
 30
0.0
 10
77.651427
 20
-142.432853
 30
0.0
 10
78.557197
 20
-142.956463
 30
0.0
  0
SPLINE
  5
2de
100
AcDbEntity
  8
Layer_1
 62
7
100
AcDbSpline
 70
8
 71
3
 72
8
 73
4
 74
0
 40
0
 40
0
 40
0
 40
0
 40
1
 40
1
 40
1
 40
1
 10
78.557197
 20
-142.956463
 30
0.0
 10
79.462944
 20
-143.480337
 30
0.0
 10
80.579456
 20
-143.480337
 30
0.0
 10
81.485229
 20
-142.956463
 30
0.0
  0
SPLINE
  5
2df
100
AcDbEntity
  8
Layer_1
 62
7
100
AcDbSpline
 70
8
 71
3
 72
8
 73
4
 74
0
 40
0
 40
0
 40
0
 40
0
 40
1
 40
1
 40
1
 40
1
 10
81.485229
 20
-142.956463
 30
0.0
 10
82.391000
 20
-142.432853
 30
0.0
 10
82.948079
 20
-141.465273
 30
0.0
 10
82.946201
 20
-140.419112
 30
0.0
  0
SPLINE
  5
2e0
100
AcDbEntity
  8
Layer_1
 62
7
100
AcDbSpline
 70
8
 71
3
 72
8
 73
4
 74
0
 40
0
 40
0
 40
0
 40
0
 40
1
 40
1
 40
1
 40
1
 10
173.295863
 20
-106.519203
 30
0.0
 10
173.295863
 20
-105.474100
 30
0.0
 10
172.738361
 20
-104.508637
 30
0.0
 10
171.833383
 20
-103.986086
 30
0.0
  0
SPLINE
  5
2e1
100
AcDbEntity
  8
Layer_1
 62
7
100
AcDbSpline
 70
8
 71
3
 72
8
 73
4
 74
0
 40
0
 40
0
 40
0
 40
0
 40
1
 40
1
 40
1
 40
1
 10
171.833383
 20
-103.986086
 30
0.0
 10
170.928377
 20
-103.463534
 30
0.0
 10
169.813374
 20
-103.463534
 30
0.0
 10
168.908368
 20
-103.986086
 30
0.0
  0
SPLINE
  5
2e2
100
AcDbEntity
  8
Layer_1
 62
7
100
AcDbSpline
 70
8
 71
3
 72
8
 73
4
 74
0
 40
0
 40
0
 40
0
 40
0
 40
1
 40
1
 40
1
 40
1
 10
168.908368
 20
-103.986086
 30
0.0
 10
168.003391
 20
-104.508637
 30
0.0
 10
167.445888
 20
-105.474100
 30
0.0
 10
167.445888
 20
-106.519203
 30
0.0
  0
SPLINE
  5
2e3
100
AcDbEntity
  8
Layer_1
 62
7
100
AcDbSpline
 70
8
 71
3
 72
8
 73
4
 74
0
 40
0
 40
0
 40
0
 40
0
 40
1
 40
1
 40
1
 40
1
 10
167.445888
 20
-106.519203
 30
0.0
 10
167.445888
 20
-107.564042
 30
0.0
 10
168.003391
 20
-108.529769
 30
0.0
 10
168.908368
 20
-109.052321
 30
0.0
  0
SPLINE
  5
2e4
100
AcDbEntity
  8
Layer_1
 62
7
100
AcDbSpline
 70
8
 71
3
 72
8
 73
4
 74
0
 40
0
 40
0
 40
0
 40
0
 40
1
 40
1
 40
1
 40
1
 10
168.908368
 20
-109.052321
 30
0.0
 10
169.813374
 20
-109.574872
 30
0.0
 10
170.928377
 20
-109.574872
 30
0.0
 10
171.833383
 20
-109.052321
 30
0.0
  0
SPLINE
  5
2e5
100
AcDbEntity
  8
Layer_1
 62
7
100
AcDbSpline
 70
8
 71
3
 72
8
 73
4
 74
0
 40
0
 40
0
 40
0
 40
0
 40
1
 40
1
 40
1
 40
1
 10
171.833383
 20
-109.052321
 30
0.0
 10
172.738361
 20
-108.529769
 30
0.0
 10
173.295863
 20
-107.564042
 30
0.0
 10
173.295863
 20
-106.519203
 30
0.0
  0
SPLINE
  5
2e6
100
AcDbEntity
  8
Layer_1
 62
7
100
AcDbSpline
 70
8
 71
3
 72
8
 73
4
 74
0
 40
0
 40
0
 40
0
 40
0
 40
1
 40
1
 40
1
 40
1
 10
129.400541
 20
-175.768962
 30
0.0
 10
129.400541
 20
-173.741462
 30
0.0
 10
128.318899
 20
-171.867950
 30
0.0
 10
126.563050
 20
-170.854332
 30
0.0
  0
SPLINE
  5
2e7
100
AcDbEntity
  8
Layer_1
 62
7
100
AcDbSpline
 70
8
 71
3
 72
8
 73
4
 74
0
 40
0
 40
0
 40
0
 40
0
 40
1
 40
1
 40
1
 40
1
 10
126.563050
 20
-170.854332
 30
0.0
 10
124.807200
 20
-169.840450
 30
0.0
 10
122.643919
 20
-169.840450
 30
0.0
 10
120.888070
 20
-170.854332
 30
0.0
  0
SPLINE
  5
2e8
100
AcDbEntity
  8
Layer_1
 62
7
100
AcDbSpline
 70
8
 71
3
 72
8
 73
4
 74
0
 40
0
 40
0
 40
0
 40
0
 40
1
 40
1
 40
1
 40
1
 10
120.888070
 20
-170.854332
 30
0.0
 10
119.132220
 20
-171.867950
 30
0.0
 10
118.050578
 20
-173.741462
 30
0.0
 10
118.050578
 20
-175.768962
 30
0.0
  0
SPLINE
  5
2e9
100
AcDbEntity
  8
Layer_1
 62
7
100
AcDbSpline
 70
8
 71
3
 72
8
 73
4
 74
0
 40
0
 40
0
 40
0
 40
0
 40
1
 40
1
 40
1
 40
1
 10
118.050578
 20
-175.768962
 30
0.0
 10
118.050578
 20
-177.796461
 30
0.0
 10
119.132220
 20
-179.669947
 30
0.0
 10
120.888070
 20
-180.683564
 30
0.0
  0
SPLINE
  5
2ea
100
AcDbEntity
  8
Layer_1
 62
7
100
AcDbSpline
 70
8
 71
3
 72
8
 73
4
 74
0
 40
0
 40
0
 40
0
 40
0
 40
1
 40
1
 40
1
 40
1
 10
120.888070
 20
-180.683564
 30
0.0
 10
122.643919
 20
-181.697182
 30
0.0
 10
124.807200
 20
-181.697182
 30
0.0
 10
126.563050
 20
-180.683564
 30
0.0
  0
SPLINE
  5
2eb
100
AcDbEntity
  8
Layer_1
 62
7
100
AcDbSpline
 70
8
 71
3
 72
8
 73
4
 74
0
 40
0
 40
0
 40
0
 40
0
 40
1
 40
1
 40
1
 40
1
 10
126.563050
 20
-180.683564
 30
0.0
 10
128.318899
 20
-179.669947
 30
0.0
 10
129.400541
 20
-177.796461
 30
0.0
 10
129.400541
 20
-175.768962
 30
0.0
  0
SPLINE
  5
2ec
100
AcDbEntity
  8
Layer_1
 62
7
100
AcDbSpline
 70
8
 71
3
 72
8
 73
4
 74
0
 40
0
 40
0
 40
0
 40
0
 40
1
 40
1
 40
1
 40
1
 10
171.795866
 20
-158.818981
 30
0.0
 10
171.795866
 20
-157.773878
 30
0.0
 10
171.238363
 20
-156.808441
 30
0.0
 10
170.333383
 20
-156.285890
 30
0.0
  0
SPLINE
  5
2ed
100
AcDbEntity
  8
Layer_1
 62
7
100
AcDbSpline
 70
8
 71
3
 72
8
 73
4
 74
0
 40
0
 40
0
 40
0
 40
0
 40
1
 40
1
 40
1
 40
1
 10
170.333383
 20
-156.285890
 30
0.0
 10
169.428380
 20
-155.763338
 30
0.0
 10
168.313374
 20
-155.763338
 30
0.0
 10
167.408370
 20
-156.285890
 30
0.0
  0
SPLINE
  5
2ee
100
AcDbEntity
  8
Layer_1
 62
7
100
AcDbSpline
 70
8
 71
3
 72
8
 73
4
 74
0
 40
0
 40
0
 40
0
 40
0
 40
1
 40
1
 40
1
 40
1
 10
167.408370
 20
-156.285890
 30
0.0
 10
166.503393
 20
-156.808441
 30
0.0
 10
165.945891
 20
-157.773878
 30
0.0
 10
165.945891
 20
-158.818981
 30
0.0
  0
SPLINE
  5
2ef
100
AcDbEntity
  8
Layer_1
 62
7
100
AcDbSpline
 70
8
 71
3
 72
8
 73
4
 74
0
 40
0
 40
0
 40
0
 40
0
 40
1
 40
1
 40
1
 40
1
 10
165.945891
 20
-158.818981
 30
0.0
 10
165.945891
 20
-159.863819
 30
0.0
 10
166.503393
 20
-160.829547
 30
0.0
 10
167.408370
 20
-161.352099
 30
0.0
  0
SPLINE
  5
2f0
100
AcDbEntity
  8
Layer_1
 62
7
100
AcDbSpline
 70
8
 71
3
 72
8
 73
4
 74
0
 40
0
 40
0
 40
0
 40
0
 40
1
 40
1
 40
1
 40
1
 10
167.408370
 20
-161.352099
 30
0.0
 10
168.313374
 20
-161.874650
 30
0.0
 10
169.428380
 20
-161.874650
 30
0.0
 10
170.333383
 20
-161.352099
 30
0.0
  0
SPLINE
  5
2f1
100
AcDbEntity
  8
Layer_1
 62
7
100
AcDbSpline
 70
8
 71
3
 72
8
 73
4
 74
0
 40
0
 40
0
 40
0
 40
0
 40
1
 40
1
 40
1
 40
1
 10
170.333383
 20
-161.352099
 30
0.0
 10
171.238363
 20
-160.829547
 30
0.0
 10
171.795866
 20
-159.863819
 30
0.0
 10
171.795866
 20
-158.818981
 30
0.0
  0
SPLINE
  5
2f2
100
AcDbEntity
  8
Layer_1
 62
7
100
AcDbSpline
 70
8
 71
3
 72
8
 73
4
 74
0
 40
0
 40
0
 40
0
 40
0
 40
1
 40
1
 40
1
 40
1
 10
171.795866
 20
-192.718916
 30
0.0
 10
171.795866
 20
-191.673813
 30
0.0
 10
171.238363
 20
-190.708085
 30
0.0
 10
170.333383
 20
-190.185798
 30
0.0
  0
SPLINE
  5
2f3
100
AcDbEntity
  8
Layer_1
 62
7
100
AcDbSpline
 70
8
 71
3
 72
8
 73
4
 74
0
 40
0
 40
0
 40
0
 40
0
 40
1
 40
1
 40
1
 40
1
 10
170.333383
 20
-190.185798
 30
0.0
 10
169.428380
 20
-189.663247
 30
0.0
 10
168.313374
 20
-189.663247
 30
0.0
 10
167.408370
 20
-190.185798
 30
0.0
  0
SPLINE
  5
2f4
100
AcDbEntity
  8
Layer_1
 62
7
100
AcDbSpline
 70
8
 71
3
 72
8
 73
4
 74
0
 40
0
 40
0
 40
0
 40
0
 40
1
 40
1
 40
1
 40
1
 10
167.408370
 20
-190.185798
 30
0.0
 10
166.503393
 20
-190.708085
 30
0.0
 10
165.945891
 20
-191.673813
 30
0.0
 10
165.945891
 20
-192.718916
 30
0.0
  0
SPLINE
  5
2f5
100
AcDbEntity
  8
Layer_1
 62
7
100
AcDbSpline
 70
8
 71
3
 72
8
 73
4
 74
0
 40
0
 40
0
 40
0
 40
0
 40
1
 40
1
 40
1
 40
1
 10
165.945891
 20
-192.718916
 30
0.0
 10
165.945891
 20
-193.763754
 30
0.0
 10
166.503393
 20
-194.729482
 30
0.0
 10
167.408370
 20
-195.252034
 30
0.0
  0
SPLINE
  5
2f6
100
AcDbEntity
  8
Layer_1
 62
7
100
AcDbSpline
 70
8
 71
3
 72
8
 73
4
 74
0
 40
0
 40
0
 40
0
 40
0
 40
1
 40
1
 40
1
 40
1
 10
167.408370
 20
-195.252034
 30
0.0
 10
168.313374
 20
-195.774585
 30
0.0
 10
169.428380
 20
-195.774585
 30
0.0
 10
170.333383
 20
-195.252034
 30
0.0
  0
SPLINE
  5
2f7
100
AcDbEntity
  8
Layer_1
 62
7
100
AcDbSpline
 70
8
 71
3
 72
8
 73
4
 74
0
 40
0
 40
0
 40
0
 40
0
 40
1
 40
1
 40
1
 40
1
 10
170.333383
 20
-195.252034
 30
0.0
 10
171.238363
 20
-194.729482
 30
0.0
 10
171.795866
 20
-193.763754
 30
0.0
 10
171.795866
 20
-192.718916
 30
0.0
  0
SPLINE
  5
2f8
100
AcDbEntity
  8
Layer_1
 62
7
100
AcDbSpline
 70
8
 71
3
 72
8
 73
4
 74
0
 40
0
 40
0
 40
0
 40
0
 40
1
 40
1
 40
1
 40
1
 10
81.446229
 20
-192.718916
 30
0.0
 10
81.446229
 20
-191.673813
 30
0.0
 10
80.888727
 20
-190.708085
 30
0.0
 10
79.983723
 20
-190.185798
 30
0.0
  0
SPLINE
  5
2f9
100
AcDbEntity
  8
Layer_1
 62
7
100
AcDbSpline
 70
8
 71
3
 72
8
 73
4
 74
0
 40
0
 40
0
 40
0
 40
0
 40
1
 40
1
 40
1
 40
1
 10
79.983723
 20
-190.185798
 30
0.0
 10
79.078717
 20
-189.663247
 30
0.0
 10
77.963711
 20
-189.663247
 30
0.0
 10
77.058734
 20
-190.185798
 30
0.0
  0
SPLINE
  5
2fa
100
AcDbEntity
  8
Layer_1
 62
7
100
AcDbSpline
 70
8
 71
3
 72
8
 73
4
 74
0
 40
0
 40
0
 40
0
 40
0
 40
1
 40
1
 40
1
 40
1
 10
77.058734
 20
-190.185798
 30
0.0
 10
76.153728
 20
-190.708085
 30
0.0
 10
75.596225
 20
-191.673813
 30
0.0
 10
75.596225
 20
-192.718916
 30
0.0
  0
SPLINE
  5
2fb
100
AcDbEntity
  8
Layer_1
 62
7
100
AcDbSpline
 70
8
 71
3
 72
8
 73
4
 74
0
 40
0
 40
0
 40
0
 40
0
 40
1
 40
1
 40
1
 40
1
 10
75.596225
 20
-192.718916
 30
0.0
 10
75.596225
 20
-193.763754
 30
0.0
 10
76.153728
 20
-194.729482
 30
0.0
 10
77.058734
 20
-195.252034
 30
0.0
  0
SPLINE
  5
2fc
100
AcDbEntity
  8
Layer_1
 62
7
100
AcDbSpline
 70
8
 71
3
 72
8
 73
4
 74
0
 40
0
 40
0
 40
0
 40
0
 40
1
 40
1
 40
1
 40
1
 10
77.058734
 20
-195.252034
 30
0.0
 10
77.963711
 20
-195.774585
 30
0.0
 10
79.078717
 20
-195.774585
 30
0.0
 10
79.983723
 20
-195.252034
 30
0.0
  0
SPLINE
  5
2fd
100
AcDbEntity
  8
Layer_1
 62
7
100
AcDbSpline
 70
8
 71
3
 72
8
 73
4
 74
0
 40
0
 40
0
 40
0
 40
0
 40
1
 40
1
 40
1
 40
1
 10
79.983723
 20
-195.252034
 30
0.0
 10
80.888727
 20
-194.729482
 30
0.0
 10
81.446229
 20
-193.763754
 30
0.0
 10
81.446229
 20
-192.718916
 30
0.0
  0
SPLINE
  5
2fe
100
AcDbEntity
  8
Layer_1
 62
7
100
AcDbSpline
 70
8
 71
3
 72
8
 73
4
 74
0
 40
0
 40
0
 40
0
 40
0
 40
1
 40
1
 40
1
 40
1
 10
81.446229
 20
-158.818981
 30
0.0
 10
81.446229
 20
-157.773878
 30
0.0
 10
80.888727
 20
-156.808441
 30
0.0
 10
79.983723
 20
-156.285890
 30
0.0
  0
SPLINE
  5
2ff
100
AcDbEntity
  8
Layer_1
 62
7
100
AcDbSpline
 70
8
 71
3
 72
8
 73
4
 74
0
 40
0
 40
0
 40
0
 40
0
 40
1
 40
1
 40
1
 40
1
 10
79.983723
 20
-156.285890
 30
0.0
 10
79.078717
 20
-155.763338
 30
0.0
 10
77.963711
 20
-155.763338
 30
0.0
 10
77.058734
 20
-156.285890
 30
0.0
  0
SPLINE
  5
300
100
AcDbEntity
  8
Layer_1
 62
7
100
AcDbSpline
 70
8
 71
3
 72
8
 73
4
 74
0
 40
0
 40
0
 40
0
 40
0
 40
1
 40
1
 40
1
 40
1
 10
77.058734
 20
-156.285890
 30
0.0
 10
76.153728
 20
-156.808441
 30
0.0
 10
75.596225
 20
-157.773878
 30
0.0
 10
75.596225
 20
-158.818981
 30
0.0
  0
SPLINE
  5
301
100
AcDbEntity
  8
Layer_1
 62
7
100
AcDbSpline
 70
8
 71
3
 72
8
 73
4
 74
0
 40
0
 40
0
 40
0
 40
0
 40
1
 40
1
 40
1
 40
1
 10
75.596225
 20
-158.818981
 30
0.0
 10
75.596225
 20
-159.863819
 30
0.0
 10
76.153728
 20
-160.829547
 30
0.0
 10
77.058734
 20
-161.352099
 30
0.0
  0
SPLINE
  5
302
100
AcDbEntity
  8
Layer_1
 62
7
100
AcDbSpline
 70
8
 71
3
 72
8
 73
4
 74
0
 40
0
 40
0
 40
0
 40
0
 40
1
 40
1
 40
1
 40
1
 10
77.058734
 20
-161.352099
 30
0.0
 10
77.963711
 20
-161.874650
 30
0.0
 10
79.078717
 20
-161.874650
 30
0.0
 10
79.983723
 20
-161.352099
 30
0.0
  0
SPLINE
  5
303
100
AcDbEntity
  8
Layer_1
 62
7
100
AcDbSpline
 70
8
 71
3
 72
8
 73
4
 74
0
 40
0
 40
0
 40
0
 40
0
 40
1
 40
1
 40
1
 40
1
 10
79.983723
 20
-161.352099
 30
0.0
 10
80.888727
 20
-160.829547
 30
0.0
 10
81.446229
 20
-159.863819
 30
0.0
 10
81.446229
 20
-158.818981
 30
0.0
  0
SPLINE
  5
304
100
AcDbEntity
  8
Layer_1
 62
7
100
AcDbSpline
 70
8
 71
3
 72
8
 73
4
 74
0
 40
0
 40
0
 40
0
 40
0
 40
1
 40
1
 40
1
 40
1
 10
176.191325
 20
-193.918800
 30
0.0
 10
176.191325
 20
-195.575619
 30
0.0
 10
174.848196
 20
-196.918906
 30
0.0
 10
173.191353
 20
-196.918906
 30
0.0
  0
SPLINE
  5
305
100
AcDbEntity
  8
Layer_1
 62
7
100
AcDbSpline
 70
8
 71
3
 72
8
 73
4
 74
0
 40
0
 40
0
 40
0
 40
0
 40
1
 40
1
 40
1
 40
1
 10
74.141709
 20
-196.918906
 30
0.0
 10
72.484867
 20
-196.918906
 30
0.0
 10
71.141740
 20
-195.575619
 30
0.0
 10
71.141740
 20
-193.918800
 30
0.0
  0
LWPOLYLINE
  5
306
100
AcDbEntity
  8
Layer_1
 62
7
100
AcDbPolyline
 90
2
 70
0
 10
177.691323
 20
-105.319055
 30
0.0
 10
177.691323
 20
-110.219132
 30
0.0
  0
SPLINE
  5
307
100
AcDbEntity
  8
Layer_1
 62
7
100
AcDbSpline
 70
8
 71
3
 72
8
 73
4
 74
0
 40
0
 40
0
 40
0
 40
0
 40
1
 40
1
 40
1
 40
1
 10
71.141740
 20
-157.618832
 30
0.0
 10
71.141740
 20
-155.962040
 30
0.0
 10
72.484867
 20
-154.619017
 30
0.0
 10
74.141709
 20
-154.619017
 30
0.0
  0
LWPOLYLINE
  5
308
100
AcDbEntity
  8
Layer_1
 62
7
100
AcDbPolyline
 90
4
 70
0
 10
174.691327
 20
-113.219239
 30
0.0
 10
168.691357
 20
-113.219239
 30
0.0
 10
168.691357
 20
-133.719103
 30
0.0
 10
174.691327
 20
-133.719103
 30
0.0
  0
SPLINE
  5
309
100
AcDbEntity
  8
Layer_1
 62
7
100
AcDbSpline
 70
8
 71
3
 72
8
 73
4
 74
0
 40
0
 40
0
 40
0
 40
0
 40
1
 40
1
 40
1
 40
1
 10
173.191353
 20
-154.619017
 30
0.0
 10
174.848196
 20
-154.619017
 30
0.0
 10
176.191325
 20
-155.962040
 30
0.0
 10
176.191325
 20
-157.618832
 30
0.0
  0
LWPOLYLINE
  5
30a
100
AcDbEntity
  8
Layer_1
 62
7
100
AcDbPolyline
 90
2
 70
0
 10
173.191353
 20
-196.918906
 30
0.0
 10
74.141709
 20
-196.918906
 30
0.0
  0
LWPOLYLINE
  5
30b
100
AcDbEntity
  8
Layer_1
 62
7
100
AcDbPolyline
 90
2
 70
0
 10
71.141740
 20
-193.918800
 30
0.0
 10
71.141740
 20
-157.618832
 30
0.0
  0
LWPOLYLINE
  5
30c
100
AcDbEntity
  8
Layer_1
 62
7
100
AcDbPolyline
 90
2
 70
0
 10
74.141709
 20
-154.619017
 30
0.0
 10
173.191353
 20
-154.619017
 30
0.0
  0
LWPOLYLINE
  5
30d
100
AcDbEntity
  8
Layer_1
 62
7
100
AcDbPolyline
 90
2
 70
0
 10
176.191325
 20
-157.618832
 30
0.0
 10
176.191325
 20
-193.918800
 30
0.0
  0
LWPOLYLINE
  5
30e
100
AcDbEntity
  8
Layer_1
 62
7
100
AcDbPolyline
 90
4
 70
1
 10
78.707692
 20
-361.778245
 30
0.0
 10
64.257722
 20
-361.778245
 30
0.0
 10
64.257722
 20
-377.458201
 30
0.0
 10
78.707692
 20
-377.458201
 30
0.0
  0
LWPOLYLINE
  5
30f
100
AcDbEntity
  8
Layer_1
 62
7
100
AcDbPolyline
 90
4
 70
1
 10
82.657673
 20
-362.078283
 30
0.0
 10
82.657673
 20
-377.098104
 30
0.0
 10
96.557602
 20
-377.098104
 30
0.0
 10
96.557602
 20
-362.078283
 30
0.0
  0
SPLINE
  5
310
100
AcDbEntity
  8
Layer_1
 62
7
100
AcDbSpline
 70
8
 71
3
 72
8
 73
4
 74
0
 40
0
 40
0
 40
0
 40
0
 40
1
 40
1
 40
1
 40
1
 10
183.141301
 20
-283.268373
 30
0.0
 10
183.141301
 20
-284.161579
 30
0.0
 10
183.617789
 20
-284.987078
 30
0.0
 10
184.391297
 20
-285.433429
 30
0.0
  0
SPLINE
  5
311
100
AcDbEntity
  8
Layer_1
 62
7
100
AcDbSpline
 70
8
 71
3
 72
8
 73
4
 74
0
 40
0
 40
0
 40
0
 40
0
 40
1
 40
1
 40
1
 40
1
 10
184.391297
 20
-285.433429
 30
0.0
 10
185.164803
 20
-285.880045
 30
0.0
 10
186.117804
 20
-285.880045
 30
0.0
 10
186.891286
 20
-285.433429
 30
0.0
  0
SPLINE
  5
312
100
AcDbEntity
  8
Layer_1
 62
7
100
AcDbSpline
 70
8
 71
3
 72
8
 73
4
 74
0
 40
0
 40
0
 40
0
 40
0
 40
1
 40
1
 40
1
 40
1
 10
186.891286
 20
-285.433429
 30
0.0
 10
187.664792
 20
-284.987078
 30
0.0
 10
188.141306
 20
-284.161579
 30
0.0
 10
188.141306
 20
-283.268373
 30
0.0
  0
LWPOLYLINE
  5
313
100
AcDbEntity
  8
Layer_1
 62
7
100
AcDbPolyline
 90
4
 70
1
 10
99.607606
 20
-363.678216
 30
0.0
 10
99.607606
 20
-378.578181
 30
0.0
 10
116.907530
 20
-378.578181
 30
0.0
 10
116.907530
 20
-363.678216
 30
0.0
  0
SPLINE
  5
314
100
AcDbEntity
  8
Layer_1
 62
7
100
AcDbSpline
 70
8
 71
3
 72
8
 73
4
 74
0
 40
0
 40
0
 40
0
 40
0
 40
1
 40
1
 40
1
 40
1
 10
134.958178
 20
-311.821588
 30
0.0
 10
134.958178
 20
-311.535574
 30
0.0
 10
134.805699
 20
-311.271520
 30
0.0
 10
134.558184
 20
-311.128645
 30
0.0
  0
SPLINE
  5
315
100
AcDbEntity
  8
Layer_1
 62
7
100
AcDbSpline
 70
8
 71
3
 72
8
 73
4
 74
0
 40
0
 40
0
 40
0
 40
0
 40
1
 40
1
 40
1
 40
1
 10
134.558184
 20
-311.128645
 30
0.0
 10
134.310664
 20
-310.985771
 30
0.0
 10
134.005709
 20
-310.985771
 30
0.0
 10
133.758165
 20
-311.128645
 30
0.0
  0
SPLINE
  5
316
100
AcDbEntity
  8
Layer_1
 62
7
100
AcDbSpline
 70
8
 71
3
 72
8
 73
4
 74
0
 40
0
 40
0
 40
0
 40
0
 40
1
 40
1
 40
1
 40
1
 10
133.758165
 20
-311.128645
 30
0.0
 10
133.510647
 20
-311.271520
 30
0.0
 10
133.358168
 20
-311.535574
 30
0.0
 10
133.358168
 20
-311.821588
 30
0.0
  0
SPLINE
  5
317
100
AcDbEntity
  8
Layer_1
 62
7
100
AcDbSpline
 70
8
 71
3
 72
8
 73
4
 74
0
 40
0
 40
0
 40
0
 40
0
 40
1
 40
1
 40
1
 40
1
 10
133.358168
 20
-311.821588
 30
0.0
 10
133.358168
 20
-312.107338
 30
0.0
 10
133.510647
 20
-312.371392
 30
0.0
 10
133.758165
 20
-312.514267
 30
0.0
  0
SPLINE
  5
318
100
AcDbEntity
  8
Layer_1
 62
7
100
AcDbSpline
 70
8
 71
3
 72
8
 73
4
 74
0
 40
0
 40
0
 40
0
 40
0
 40
1
 40
1
 40
1
 40
1
 10
133.758165
 20
-312.514267
 30
0.0
 10
134.005709
 20
-312.657141
 30
0.0
 10
134.310664
 20
-312.657141
 30
0.0
 10
134.558184
 20
-312.514267
 30
0.0
  0
SPLINE
  5
319
100
AcDbEntity
  8
Layer_1
 62
7
100
AcDbSpline
 70
8
 71
3
 72
8
 73
4
 74
0
 40
0
 40
0
 40
0
 40
0
 40
1
 40
1
 40
1
 40
1
 10
134.558184
 20
-312.514267
 30
0.0
 10
134.805699
 20
-312.371392
 30
0.0
 10
134.958178
 20
-312.107338
 30
0.0
 10
134.958178
 20
-311.821588
 30
0.0
  0
SPLINE
  5
31a
100
AcDbEntity
  8
Layer_1
 62
7
100
AcDbSpline
 70
8
 71
3
 72
8
 73
4
 74
0
 40
0
 40
0
 40
0
 40
0
 40
1
 40
1
 40
1
 40
1
 10
113.958252
 20
-299.321391
 30
0.0
 10
113.958252
 20
-299.035641
 30
0.0
 10
113.805773
 20
-298.771588
 30
0.0
 10
113.558255
 20
-298.628713
 30
0.0
  0
SPLINE
  5
31b
100
AcDbEntity
  8
Layer_1
 62
7
100
AcDbSpline
 70
8
 71
3
 72
8
 73
4
 74
0
 40
0
 40
0
 40
0
 40
0
 40
1
 40
1
 40
1
 40
1
 10
113.558255
 20
-298.628713
 30
0.0
 10
113.310741
 20
-298.485838
 30
0.0
 10
113.005782
 20
-298.485838
 30
0.0
 10
112.758238
 20
-298.628713
 30
0.0
  0
SPLINE
  5
31c
100
AcDbEntity
  8
Layer_1
 62
7
100
AcDbSpline
 70
8
 71
3
 72
8
 73
4
 74
0
 40
0
 40
0
 40
0
 40
0
 40
1
 40
1
 40
1
 40
1
 10
112.758238
 20
-298.628713
 30
0.0
 10
112.510721
 20
-298.771588
 30
0.0
 10
112.358242
 20
-299.035641
 30
0.0
 10
112.358242
 20
-299.321391
 30
0.0
  0
SPLINE
  5
31d
100
AcDbEntity
  8
Layer_1
 62
7
100
AcDbSpline
 70
8
 71
3
 72
8
 73
4
 74
0
 40
0
 40
0
 40
0
 40
0
 40
1
 40
1
 40
1
 40
1
 10
112.358242
 20
-299.321391
 30
0.0
 10
112.358242
 20
-299.607405
 30
0.0
 10
112.510721
 20
-299.871459
 30
0.0
 10
112.758238
 20
-300.014334
 30
0.0
  0
SPLINE
  5
31e
100
AcDbEntity
  8
Layer_1
 62
7
100
AcDbSpline
 70
8
 71
3
 72
8
 73
4
 74
0
 40
0
 40
0
 40
0
 40
0
 40
1
 40
1
 40
1
 40
1
 10
112.758238
 20
-300.014334
 30
0.0
 10
113.005782
 20
-300.157209
 30
0.0
 10
113.310741
 20
-300.157209
 30
0.0
 10
113.558255
 20
-300.014334
 30
0.0
  0
SPLINE
  5
31f
100
AcDbEntity
  8
Layer_1
 62
7
100
AcDbSpline
 70
8
 71
3
 72
8
 73
4
 74
0
 40
0
 40
0
 40
0
 40
0
 40
1
 40
1
 40
1
 40
1
 10
113.558255
 20
-300.014334
 30
0.0
 10
113.805773
 20
-299.871459
 30
0.0
 10
113.958252
 20
-299.607405
 30
0.0
 10
113.958252
 20
-299.321391
 30
0.0
  0
SPLINE
  5
320
100
AcDbEntity
  8
Layer_1
 62
7
100
AcDbSpline
 70
8
 71
3
 72
8
 73
4
 74
0
 40
0
 40
0
 40
0
 40
0
 40
1
 40
1
 40
1
 40
1
 10
134.958178
 20
-299.321391
 30
0.0
 10
134.958178
 20
-299.035641
 30
0.0
 10
134.805699
 20
-298.771588
 30
0.0
 10
134.558184
 20
-298.628713
 30
0.0
  0
SPLINE
  5
321
100
AcDbEntity
  8
Layer_1
 62
7
100
AcDbSpline
 70
8
 71
3
 72
8
 73
4
 74
0
 40
0
 40
0
 40
0
 40
0
 40
1
 40
1
 40
1
 40
1
 10
134.558184
 20
-298.628713
 30
0.0
 10
134.310664
 20
-298.485838
 30
0.0
 10
134.005709
 20
-298.485838
 30
0.0
 10
133.758165
 20
-298.628713
 30
0.0
  0
SPLINE
  5
322
100
AcDbEntity
  8
Layer_1
 62
7
100
AcDbSpline
 70
8
 71
3
 72
8
 73
4
 74
0
 40
0
 40
0
 40
0
 40
0
 40
1
 40
1
 40
1
 40
1
 10
133.758165
 20
-298.628713
 30
0.0
 10
133.510647
 20
-298.771588
 30
0.0
 10
133.358168
 20
-299.035641
 30
0.0
 10
133.358168
 20
-299.321391
 30
0.0
  0
SPLINE
  5
323
100
AcDbEntity
  8
Layer_1
 62
7
100
AcDbSpline
 70
8
 71
3
 72
8
 73
4
 74
0
 40
0
 40
0
 40
0
 40
0
 40
1
 40
1
 40
1
 40
1
 10
133.358168
 20
-299.321391
 30
0.0
 10
133.358168
 20
-299.607405
 30
0.0
 10
133.510647
 20
-299.871459
 30
0.0
 10
133.758165
 20
-300.014334
 30
0.0
  0
SPLINE
  5
324
100
AcDbEntity
  8
Layer_1
 62
7
100
AcDbSpline
 70
8
 71
3
 72
8
 73
4
 74
0
 40
0
 40
0
 40
0
 40
0
 40
1
 40
1
 40
1
 40
1
 10
133.758165
 20
-300.014334
 30
0.0
 10
134.005709
 20
-300.157209
 30
0.0
 10
134.310664
 20
-300.157209
 30
0.0
 10
134.558184
 20
-300.014334
 30
0.0
  0
SPLINE
  5
325
100
AcDbEntity
  8
Layer_1
 62
7
100
AcDbSpline
 70
8
 71
3
 72
8
 73
4
 74
0
 40
0
 40
0
 40
0
 40
0
 40
1
 40
1
 40
1
 40
1
 10
134.558184
 20
-300.014334
 30
0.0
 10
134.805699
 20
-299.871459
 30
0.0
 10
134.958178
 20
-299.607405
 30
0.0
 10
134.958178
 20
-299.321391
 30
0.0
  0
SPLINE
  5
326
100
AcDbEntity
  8
Layer_1
 62
7
100
AcDbSpline
 70
8
 71
3
 72
8
 73
4
 74
0
 40
0
 40
0
 40
0
 40
0
 40
1
 40
1
 40
1
 40
1
 10
113.958252
 20
-311.821588
 30
0.0
 10
113.958252
 20
-311.535574
 30
0.0
 10
113.805773
 20
-311.271520
 30
0.0
 10
113.558255
 20
-311.128645
 30
0.0
  0
SPLINE
  5
327
100
AcDbEntity
  8
Layer_1
 62
7
100
AcDbSpline
 70
8
 71
3
 72
8
 73
4
 74
0
 40
0
 40
0
 40
0
 40
0
 40
1
 40
1
 40
1
 40
1
 10
113.558255
 20
-311.128645
 30
0.0
 10
113.310741
 20
-310.985771
 30
0.0
 10
113.005782
 20
-310.985771
 30
0.0
 10
112.758238
 20
-311.128645
 30
0.0
  0
SPLINE
  5
328
100
AcDbEntity
  8
Layer_1
 62
7
100
AcDbSpline
 70
8
 71
3
 72
8
 73
4
 74
0
 40
0
 40
0
 40
0
 40
0
 40
1
 40
1
 40
1
 40
1
 10
112.758238
 20
-311.128645
 30
0.0
 10
112.510721
 20
-311.271520
 30
0.0
 10
112.358242
 20
-311.535574
 30
0.0
 10
112.358242
 20
-311.821588
 30
0.0
  0
SPLINE
  5
329
100
AcDbEntity
  8
Layer_1
 62
7
100
AcDbSpline
 70
8
 71
3
 72
8
 73
4
 74
0
 40
0
 40
0
 40
0
 40
0
 40
1
 40
1
 40
1
 40
1
 10
112.358242
 20
-311.821588
 30
0.0
 10
112.358242
 20
-312.107338
 30
0.0
 10
112.510721
 20
-312.371392
 30
0.0
 10
112.758238
 20
-312.514267
 30
0.0
  0
SPLINE
  5
32a
100
AcDbEntity
  8
Layer_1
 62
7
100
AcDbSpline
 70
8
 71
3
 72
8
 73
4
 74
0
 40
0
 40
0
 40
0
 40
0
 40
1
 40
1
 40
1
 40
1
 10
112.758238
 20
-312.514267
 30
0.0
 10
113.005782
 20
-312.657141
 30
0.0
 10
113.310741
 20
-312.657141
 30
0.0
 10
113.558255
 20
-312.514267
 30
0.0
  0
SPLINE
  5
32b
100
AcDbEntity
  8
Layer_1
 62
7
100
AcDbSpline
 70
8
 71
3
 72
8
 73
4
 74
0
 40
0
 40
0
 40
0
 40
0
 40
1
 40
1
 40
1
 40
1
 10
113.558255
 20
-312.514267
 30
0.0
 10
113.805773
 20
-312.371392
 30
0.0
 10
113.958252
 20
-312.107338
 30
0.0
 10
113.958252
 20
-311.821588
 30
0.0
  0
SPLINE
  5
32c
100
AcDbEntity
  8
Layer_1
 62
7
100
AcDbSpline
 70
8
 71
3
 72
8
 73
4
 74
0
 40
0
 40
0
 40
0
 40
0
 40
1
 40
1
 40
1
 40
1
 10
186.732272
 20
-293.074057
 30
0.0
 10
189.557881
 20
-294.855759
 30
0.0
 10
190.864736
 20
-298.291105
 30
0.0
 10
189.937531
 20
-301.500232
 30
0.0
  0
SPLINE
  5
32d
100
AcDbEntity
  8
Layer_1
 62
7
100
AcDbSpline
 70
8
 71
3
 72
8
 73
4
 74
0
 40
0
 40
0
 40
0
 40
0
 40
1
 40
1
 40
1
 40
1
 10
189.937531
 20
-301.500232
 30
0.0
 10
189.010355
 20
-304.709359
 30
0.0
 10
186.072613
 20
-306.918336
 30
0.0
 10
182.732282
 20
-306.918336
 30
0.0
  0
SPLINE
  5
32e
100
AcDbEntity
  8
Layer_1
 62
7
100
AcDbSpline
 70
8
 71
3
 72
8
 73
4
 74
0
 40
0
 40
0
 40
0
 40
0
 40
1
 40
1
 40
1
 40
1
 10
182.732282
 20
-306.918336
 30
0.0
 10
179.391927
 20
-306.918336
 30
0.0
 10
176.454214
 20
-304.709359
 30
0.0
 10
175.527036
 20
-301.500232
 30
0.0
  0
SPLINE
  5
32f
100
AcDbEntity
  8
Layer_1
 62
7
100
AcDbSpline
 70
8
 71
3
 72
8
 73
4
 74
0
 40
0
 40
0
 40
0
 40
0
 40
1
 40
1
 40
1
 40
1
 10
175.527036
 20
-301.500232
 30
0.0
 10
174.599832
 20
-298.291105
 30
0.0
 10
175.906686
 20
-294.855759
 30
0.0
 10
178.732295
 20
-293.074057
 30
0.0
  0
SPLINE
  5
330
100
AcDbEntity
  8
Layer_1
 62
7
100
AcDbSpline
 70
8
 71
3
 72
8
 73
4
 74
0
 40
0
 40
0
 40
0
 40
0
 40
1
 40
1
 40
1
 40
1
 10
60.482763
 20
-305.762638
 30
0.0
 10
57.657151
 20
-303.981227
 30
0.0
 10
56.350299
 20
-300.545617
 30
0.0
 10
57.277475
 20
-297.336754
 30
0.0
  0
SPLINE
  5
331
100
AcDbEntity
  8
Layer_1
 62
7
100
AcDbSpline
 70
8
 71
3
 72
8
 73
4
 74
0
 40
0
 40
0
 40
0
 40
0
 40
1
 40
1
 40
1
 40
1
 10
57.277475
 20
-297.336754
 30
0.0
 10
58.204679
 20
-294.127627
 30
0.0
 10
61.142392
 20
-291.918359
 30
0.0
 10
64.482723
 20
-291.918359
 30
0.0
  0
SPLINE
  5
332
100
AcDbEntity
  8
Layer_1
 62
7
100
AcDbSpline
 70
8
 71
3
 72
8
 73
4
 74
0
 40
0
 40
0
 40
0
 40
0
 40
1
 40
1
 40
1
 40
1
 10
64.482723
 20
-291.918359
 30
0.0
 10
67.823078
 20
-291.918359
 30
0.0
 10
70.760794
 20
-294.127627
 30
0.0
 10
71.687996
 20
-297.336754
 30
0.0
  0
SPLINE
  5
333
100
AcDbEntity
  8
Layer_1
 62
7
100
AcDbSpline
 70
8
 71
3
 72
8
 73
4
 74
0
 40
0
 40
0
 40
0
 40
0
 40
1
 40
1
 40
1
 40
1
 10
71.687996
 20
-297.336754
 30
0.0
 10
72.615174
 20
-300.545617
 30
0.0
 10
71.308322
 20
-303.981227
 30
0.0
 10
68.482710
 20
-305.762638
 30
0.0
  0
LWPOLYLINE
  5
334
100
AcDbEntity
  8
Layer_1
 62
7
100
AcDbPolyline
 90
60
 70
1
 10
189.091289
 20
-365.918176
 30
0.0
 10
193.141258
 20
-365.918176
 30
0.0
 10
193.141258
 20
-372.918222
 30
0.0
 10
199.491242
 20
-372.918222
 30
0.0
 10
199.491242
 20
-378.168077
 30
0.0
 10
193.141258
 20
-378.168077
 30
0.0
 10
193.141258
 20
-385.568199
 30
0.0
 10
178.141325
 20
-385.568199
 30
0.0
 10
178.141325
 20
-391.918165
 30
0.0
 10
158.403907
 20
-391.918165
 30
0.0
 10
158.403907
 20
-385.568199
 30
0.0
 10
138.666489
 20
-385.568199
 30
0.0
 10
138.666489
 20
-391.918165
 30
0.0
 10
108.666573
 20
-391.918165
 30
0.0
 10
108.666573
 20
-385.568199
 30
0.0
 10
88.929155
 20
-385.568199
 30
0.0
 10
88.929155
 20
-391.918165
 30
0.0
 10
69.191740
 20
-391.918165
 30
0.0
 10
69.191740
 20
-385.568199
 30
0.0
 10
54.191807
 20
-385.568199
 30
0.0
 10
54.191807
 20
-378.168077
 30
0.0
 10
47.841823
 20
-378.168077
 30
0.0
 10
47.841823
 20
-372.918222
 30
0.0
 10
54.191807
 20
-372.918222
 30
0.0
 10
54.191807
 20
-365.918176
 30
0.0
 10
58.241800
 20
-365.918176
 30
0.0
 10
58.241800
 20
-367.068053
 30
0.0
 10
60.341793
 20
-367.068053
 30
0.0
 10
60.341793
 20
-361.768191
 30
0.0
 10
58.241800
 20
-361.768191
 30
0.0
 10
58.241800
 20
-362.918069
 30
0.0
 10
54.191807
 20
-362.918069
 30
0.0
 10
54.191807
 20
-355.918261
 30
0.0
 10
47.841823
 20
-355.918261
 30
0.0
 10
47.841823
 20
-350.668141
 30
0.0
 10
54.191807
 20
-350.668141
 30
0.0
 10
54.191807
 20
-343.268310
 30
0.0
 10
69.191740
 20
-343.268310
 30
0.0
 10
69.191740
 20
-336.918318
 30
0.0
 10
88.929155
 20
-336.918318
 30
0.0
 10
88.929155
 20
-343.268310
 30
0.0
 10
108.666573
 20
-343.268310
 30
0.0
 10
108.666573
 20
-336.918318
 30
0.0
 10
138.666489
 20
-336.918318
 30
0.0
 10
138.666489
 20
-343.268310
 30
0.0
 10
158.403907
 20
-343.268310
 30
0.0
 10
158.403907
 20
-336.918318
 30
0.0
 10
178.141325
 20
-336.918318
 30
0.0
 10
178.141325
 20
-343.268310
 30
0.0
 10
193.141258
 20
-343.268310
 30
0.0
 10
193.141258
 20
-350.668141
 30
0.0
 10
199.491242
 20
-350.668141
 30
0.0
 10
199.491242
 20
-355.918261
 30
0.0
 10
193.141258
 20
-355.918261
 30
0.0
 10
193.141258
 20
-362.918069
 30
0.0
 10
189.091289
 20
-362.918069
 30
0.0
 10
189.091289
 20
-361.768191
 30
0.0
 10
186.991296
 20
-361.768191
 30
0.0
 10
186.991296
 20
-367.068053
 30
0.0
 10
189.091289
 20
-367.068053
 30
0.0
  0
SPLINE
  5
335
100
AcDbEntity
  8
Layer_1
 62
7
100
AcDbSpline
 70
8
 71
3
 72
8
 73
4
 74
0
 40
0
 40
0
 40
0
 40
0
 40
1
 40
1
 40
1
 40
1
 10
127.216517
 20
-299.418493
 30
0.0
 10
127.216517
 20
-298.150082
 30
0.0
 10
126.539899
 20
-296.978244
 30
0.0
 10
125.441538
 20
-296.344038
 30
0.0
  0
SPLINE
  5
336
100
AcDbEntity
  8
Layer_1
 62
7
100
AcDbSpline
 70
8
 71
3
 72
8
 73
4
 74
0
 40
0
 40
0
 40
0
 40
0
 40
1
 40
1
 40
1
 40
1
 10
125.441538
 20
-296.344038
 30
0.0
 10
124.343148
 20
-295.709833
 30
0.0
 10
122.989914
 20
-295.709833
 30
0.0
 10
121.891527
 20
-296.344038
 30
0.0
  0
SPLINE
  5
337
100
AcDbEntity
  8
Layer_1
 62
7
100
AcDbSpline
 70
8
 71
3
 72
8
 73
4
 74
0
 40
0
 40
0
 40
0
 40
0
 40
1
 40
1
 40
1
 40
1
 10
121.891527
 20
-296.344038
 30
0.0
 10
120.793164
 20
-296.978244
 30
0.0
 10
120.116546
 20
-298.150082
 30
0.0
 10
120.116546
 20
-299.418493
 30
0.0
  0
SPLINE
  5
338
100
AcDbEntity
  8
Layer_1
 62
7
100
AcDbSpline
 70
8
 71
3
 72
8
 73
4
 74
0
 40
0
 40
0
 40
0
 40
0
 40
1
 40
1
 40
1
 40
1
 10
120.116546
 20
-299.418493
 30
0.0
 10
120.116546
 20
-300.686639
 30
0.0
 10
120.793164
 20
-301.858742
 30
0.0
 10
121.891527
 20
-302.492947
 30
0.0
  0
SPLINE
  5
339
100
AcDbEntity
  8
Layer_1
 62
7
100
AcDbSpline
 70
8
 71
3
 72
8
 73
4
 74
0
 40
0
 40
0
 40
0
 40
0
 40
1
 40
1
 40
1
 40
1
 10
121.891527
 20
-302.492947
 30
0.0
 10
122.989914
 20
-303.126888
 30
0.0
 10
124.343148
 20
-303.126888
 30
0.0
 10
125.441538
 20
-302.492947
 30
0.0
  0
SPLINE
  5
33a
100
AcDbEntity
  8
Layer_1
 62
7
100
AcDbSpline
 70
8
 71
3
 72
8
 73
4
 74
0
 40
0
 40
0
 40
0
 40
0
 40
1
 40
1
 40
1
 40
1
 10
125.441538
 20
-302.492947
 30
0.0
 10
126.539899
 20
-301.858742
 30
0.0
 10
127.216517
 20
-300.686639
 30
0.0
 10
127.216517
 20
-299.418493
 30
0.0
  0
LWPOLYLINE
  5
33b
100
AcDbEntity
  8
Layer_1
 62
7
100
AcDbPolyline
 90
48
 70
0
 10
188.141306
 20
-283.268373
 30
0.0
 10
188.141306
 20
-278.268548
 30
0.0
 10
193.141258
 20
-278.268548
 30
0.0
 10
193.141258
 20
-285.668379
 30
0.0
 10
199.491242
 20
-285.668379
 30
0.0
 10
199.491242
 20
-290.918499
 30
0.0
 10
193.141258
 20
-290.918499
 30
0.0
 10
193.141258
 20
-307.918460
 30
0.0
 10
199.491242
 20
-307.918460
 30
0.0
 10
199.491242
 20
-313.168316
 30
0.0
 10
193.141258
 20
-313.168316
 30
0.0
 10
193.141258
 20
-320.568438
 30
0.0
 10
178.141325
 20
-320.568438
 30
0.0
 10
178.141325
 20
-326.918403
 30
0.0
 10
158.403907
 20
-326.918403
 30
0.0
 10
158.403907
 20
-320.568438
 30
0.0
 10
138.666489
 20
-320.568438
 30
0.0
 10
138.666489
 20
-326.918403
 30
0.0
 10
108.666573
 20
-326.918403
 30
0.0
 10
108.666573
 20
-320.568438
 30
0.0
 10
88.929155
 20
-320.568438
 30
0.0
 10
88.929155
 20
-326.918403
 30
0.0
 10
69.191740
 20
-326.918403
 30
0.0
 10
69.191740
 20
-320.568438
 30
0.0
 10
54.191807
 20
-320.568438
 30
0.0
 10
54.191807
 20
-313.168316
 30
0.0
 10
47.841823
 20
-313.168316
 30
0.0
 10
47.841823
 20
-307.918460
 30
0.0
 10
54.191807
 20
-307.918460
 30
0.0
 10
54.191807
 20
-290.918499
 30
0.0
 10
47.841823
 20
-290.918499
 30
0.0
 10
47.841823
 20
-285.668379
 30
0.0
 10
54.191807
 20
-285.668379
 30
0.0
 10
54.191807
 20
-278.268548
 30
0.0
 10
69.191740
 20
-278.268548
 30
0.0
 10
69.191740
 20
-271.918556
 30
0.0
 10
88.929155
 20
-271.918556
 30
0.0
 10
88.929155
 20
-278.268548
 30
0.0
 10
108.666573
 20
-278.268548
 30
0.0
 10
108.666573
 20
-271.918556
 30
0.0
 10
138.666489
 20
-271.918556
 30
0.0
 10
138.666489
 20
-278.268548
 30
0.0
 10
158.403907
 20
-278.268548
 30
0.0
 10
158.403907
 20
-271.918556
 30
0.0
 10
178.141325
 20
-271.918556
 30
0.0
 10
178.141325
 20
-278.268548
 30
0.0
 10
183.141301
 20
-278.268548
 30
0.0
 10
183.141301
 20
-283.268373
 30
0.0
  0
SPLINE
  5
33c
100
AcDbEntity
  8
Layer_1
 62
7
100
AcDbSpline
 70
8
 71
3
 72
8
 73
4
 74
0
 40
0
 40
0
 40
0
 40
0
 40
1
 40
1
 40
1
 40
1
 10
186.850326
 20
-240.762902
 30
0.0
 10
189.675938
 20
-238.981465
 30
0.0
 10
190.982792
 20
-235.545855
 30
0.0
 10
190.055588
 20
-232.336992
 30
0.0
  0
SPLINE
  5
33d
100
AcDbEntity
  8
Layer_1
 62
7
100
AcDbSpline
 70
8
 71
3
 72
8
 73
4
 74
0
 40
0
 40
0
 40
0
 40
0
 40
1
 40
1
 40
1
 40
1
 10
190.055588
 20
-232.336992
 30
0.0
 10
189.128410
 20
-229.127865
 30
0.0
 10
186.190670
 20
-226.918597
 30
0.0
 10
182.850342
 20
-226.918597
 30
0.0
  0
SPLINE
  5
33e
100
AcDbEntity
  8
Layer_1
 62
7
100
AcDbSpline
 70
8
 71
3
 72
8
 73
4
 74
0
 40
0
 40
0
 40
0
 40
0
 40
1
 40
1
 40
1
 40
1
 10
182.850342
 20
-226.918597
 30
0.0
 10
179.509984
 20
-226.918597
 30
0.0
 10
176.572271
 20
-229.127865
 30
0.0
 10
175.645093
 20
-232.336992
 30
0.0
  0
SPLINE
  5
33f
100
AcDbEntity
  8
Layer_1
 62
7
100
AcDbSpline
 70
8
 71
3
 72
8
 73
4
 74
0
 40
0
 40
0
 40
0
 40
0
 40
1
 40
1
 40
1
 40
1
 10
175.645093
 20
-232.336992
 30
0.0
 10
174.717889
 20
-235.545855
 30
0.0
 10
176.024743
 20
-238.981465
 30
0.0
 10
178.850352
 20
-240.762902
 30
0.0
  0
LWPOLYLINE
  5
340
100
AcDbEntity
  8
Layer_1
 62
7
100
AcDbPolyline
 90
4
 70
0
 10
178.732295
 20
-293.074057
 30
0.0
 10
178.732295
 20
-288.918517
 30
0.0
 10
186.732272
 20
-288.918517
 30
0.0
 10
186.732272
 20
-293.074057
 30
0.0
  0
SPLINE
  5
341
100
AcDbEntity
  8
Layer_1
 62
7
100
AcDbSpline
 70
8
 71
3
 72
8
 73
4
 74
0
 40
0
 40
0
 40
0
 40
0
 40
1
 40
1
 40
1
 40
1
 10
129.430862
 20
-234.418731
 30
0.0
 10
129.430862
 20
-232.359217
 30
0.0
 10
128.332181
 20
-230.456336
 30
0.0
 10
126.548709
 20
-229.426579
 30
0.0
  0
SPLINE
  5
342
100
AcDbEntity
  8
Layer_1
 62
7
100
AcDbSpline
 70
8
 71
3
 72
8
 73
4
 74
0
 40
0
 40
0
 40
0
 40
0
 40
1
 40
1
 40
1
 40
1
 10
126.548709
 20
-229.426579
 30
0.0
 10
124.765211
 20
-228.396822
 30
0.0
 10
122.567852
 20
-228.396822
 30
0.0
 10
120.784380
 20
-229.426579
 30
0.0
  0
SPLINE
  5
343
100
AcDbEntity
  8
Layer_1
 62
7
100
AcDbSpline
 70
8
 71
3
 72
8
 73
4
 74
0
 40
0
 40
0
 40
0
 40
0
 40
1
 40
1
 40
1
 40
1
 10
120.784380
 20
-229.426579
 30
0.0
 10
119.000881
 20
-230.456336
 30
0.0
 10
117.902200
 20
-232.359217
 30
0.0
 10
117.902200
 20
-234.418731
 30
0.0
  0
SPLINE
  5
344
100
AcDbEntity
  8
Layer_1
 62
7
100
AcDbSpline
 70
8
 71
3
 72
8
 73
4
 74
0
 40
0
 40
0
 40
0
 40
0
 40
1
 40
1
 40
1
 40
1
 10
117.902200
 20
-234.418731
 30
0.0
 10
117.902200
 20
-236.477981
 30
0.0
 10
119.000881
 20
-238.381126
 30
0.0
 10
120.784380
 20
-239.410619
 30
0.0
  0
SPLINE
  5
345
100
AcDbEntity
  8
Layer_1
 62
7
100
AcDbSpline
 70
8
 71
3
 72
8
 73
4
 74
0
 40
0
 40
0
 40
0
 40
0
 40
1
 40
1
 40
1
 40
1
 10
120.784380
 20
-239.410619
 30
0.0
 10
122.567852
 20
-240.440376
 30
0.0
 10
124.765211
 20
-240.440376
 30
0.0
 10
126.548709
 20
-239.410619
 30
0.0
  0
SPLINE
  5
346
100
AcDbEntity
  8
Layer_1
 62
7
100
AcDbSpline
 70
8
 71
3
 72
8
 73
4
 74
0
 40
0
 40
0
 40
0
 40
0
 40
1
 40
1
 40
1
 40
1
 10
126.548709
 20
-239.410619
 30
0.0
 10
128.332181
 20
-238.381126
 30
0.0
 10
129.430862
 20
-236.477981
 30
0.0
 10
129.430862
 20
-234.418731
 30
0.0
  0
LWPOLYLINE
  5
347
100
AcDbEntity
  8
Layer_1
 62
7
100
AcDbPolyline
 90
4
 70
0
 10
68.482710
 20
-305.762638
 30
0.0
 10
68.482710
 20
-309.918443
 30
0.0
 10
60.482763
 20
-309.918443
 30
0.0
 10
60.482763
 20
-305.762638
 30
0.0
  0
SPLINE
  5
348
100
AcDbEntity
  8
Layer_1
 62
7
100
AcDbSpline
 70
8
 71
3
 72
8
 73
4
 74
0
 40
0
 40
0
 40
0
 40
0
 40
1
 40
1
 40
1
 40
1
 10
60.600820
 20
-228.074296
 30
0.0
 10
57.775208
 20
-229.855997
 30
0.0
 10
56.468356
 20
-233.291343
 30
0.0
 10
57.395532
 20
-236.500470
 30
0.0
  0
SPLINE
  5
349
100
AcDbEntity
  8
Layer_1
 62
7
100
AcDbSpline
 70
8
 71
3
 72
8
 73
4
 74
0
 40
0
 40
0
 40
0
 40
0
 40
1
 40
1
 40
1
 40
1
 10
57.395532
 20
-236.500470
 30
0.0
 10
58.322736
 20
-239.709598
 30
0.0
 10
61.260449
 20
-241.918575
 30
0.0
 10
64.600780
 20
-241.918575
 30
0.0
  0
SPLINE
  5
34a
100
AcDbEntity
  8
Layer_1
 62
7
100
AcDbSpline
 70
8
 71
3
 72
8
 73
4
 74
0
 40
0
 40
0
 40
0
 40
0
 40
1
 40
1
 40
1
 40
1
 10
64.600780
 20
-241.918575
 30
0.0
 10
67.941135
 20
-241.918575
 30
0.0
 10
70.878851
 20
-239.709598
 30
0.0
 10
71.806053
 20
-236.500470
 30
0.0
  0
SPLINE
  5
34b
100
AcDbEntity
  8
Layer_1
 62
7
100
AcDbSpline
 70
8
 71
3
 72
8
 73
4
 74
0
 40
0
 40
0
 40
0
 40
0
 40
1
 40
1
 40
1
 40
1
 10
71.806053
 20
-236.500470
 30
0.0
 10
72.733231
 20
-233.291343
 30
0.0
 10
71.426379
 20
-229.855997
 30
0.0
 10
68.600767
 20
-228.074296
 30
0.0
  0
LWPOLYLINE
  5
34c
100
AcDbEntity
  8
Layer_1
 62
7
100
AcDbPolyline
 90
3
 70
0
 10
178.850352
 20
-244.918681
 30
0.0
 10
186.850326
 20
-244.918681
 30
0.0
 10
186.850326
 20
-240.762902
 30
0.0
  0
LWPOLYLINE
  5
34d
100
AcDbEntity
  8
Layer_1
 62
7
100
AcDbPolyline
 90
2
 70
0
 10
178.850352
 20
-240.762902
 30
0.0
 10
178.850352
 20
-244.918681
 30
0.0
  0
SPLINE
  5
34e
100
AcDbEntity
  8
Layer_1
 62
7
100
AcDbSpline
 70
8
 71
3
 72
8
 73
4
 74
0
 40
0
 40
0
 40
0
 40
0
 40
1
 40
1
 40
1
 40
1
 10
59.191783
 20
-218.268611
 30
0.0
 10
59.194429
 20
-219.647618
 30
0.0
 10
60.313006
 20
-220.763629
 30
0.0
 10
61.691772
 20
-220.763629
 30
0.0
  0
SPLINE
  5
34f
100
AcDbEntity
  8
Layer_1
 62
7
100
AcDbSpline
 70
8
 71
3
 72
8
 73
4
 74
0
 40
0
 40
0
 40
0
 40
0
 40
1
 40
1
 40
1
 40
1
 10
61.691772
 20
-220.763629
 30
0.0
 10
63.070514
 20
-220.763629
 30
0.0
 10
64.188983
 20
-219.647618
 30
0.0
 10
64.191735
 20
-218.268611
 30
0.0
  0
LWPOLYLINE
  5
350
100
AcDbEntity
  8
Layer_1
 62
7
100
AcDbPolyline
 90
3
 70
0
 10
68.600767
 20
-223.918755
 30
0.0
 10
60.600820
 20
-223.918755
 30
0.0
 10
60.600820
 20
-228.074296
 30
0.0
  0
LWPOLYLINE
  5
351
100
AcDbEntity
  8
Layer_1
 62
7
100
AcDbPolyline
 90
2
 70
0
 10
68.600767
 20
-228.074296
 30
0.0
 10
68.600767
 20
-223.918755
 30
0.0
  0
SPLINE
  5
352
100
AcDbEntity
  8
Layer_1
 62
7
100
AcDbSpline
 70
8
 71
3
 72
8
 73
4
 74
0
 40
0
 40
0
 40
0
 40
0
 40
1
 40
1
 40
1
 40
1
 10
255.055453
 20
455.875069
 30
0.0
 10
255.058098
 20
457.817900
 30
0.0
 10
254.022761
 20
459.614151
 30
0.0
 10
252.340675
 20
460.586229
 30
0.0
  0
SPLINE
  5
353
100
AcDbEntity
  8
Layer_1
 62
7
100
AcDbSpline
 70
8
 71
3
 72
8
 73
4
 74
0
 40
0
 40
0
 40
0
 40
0
 40
1
 40
1
 40
1
 40
1
 10
252.340675
 20
460.586229
 30
0.0
 10
250.658618
 20
461.558304
 30
0.0
 10
248.585507
 20
461.558304
 30
0.0
 10
246.903423
 20
460.586229
 30
0.0
  0
SPLINE
  5
354
100
AcDbEntity
  8
Layer_1
 62
7
100
AcDbSpline
 70
8
 71
3
 72
8
 73
4
 74
0
 40
0
 40
0
 40
0
 40
0
 40
1
 40
1
 40
1
 40
1
 10
246.903423
 20
460.586229
 30
0.0
 10
245.221339
 20
459.614151
 30
0.0
 10
244.186267
 20
457.817900
 30
0.0
 10
244.188672
 20
455.875069
 30
0.0
  0
SPLINE
  5
355
100
AcDbEntity
  8
Layer_1
 62
7
100
AcDbSpline
 70
8
 71
3
 72
8
 73
4
 74
0
 40
0
 40
0
 40
0
 40
0
 40
1
 40
1
 40
1
 40
1
 10
244.188672
 20
455.875069
 30
0.0
 10
244.186026
 20
453.932504
 30
0.0
 10
245.221339
 20
452.136252
 30
0.0
 10
246.903423
 20
451.164174
 30
0.0
  0
SPLINE
  5
356
100
AcDbEntity
  8
Layer_1
 62
7
100
AcDbSpline
 70
8
 71
3
 72
8
 73
4
 74
0
 40
0
 40
0
 40
0
 40
0
 40
1
 40
1
 40
1
 40
1
 10
246.903423
 20
451.164174
 30
0.0
 10
248.585507
 20
450.192099
 30
0.0
 10
250.658618
 20
450.192099
 30
0.0
 10
252.340675
 20
451.164174
 30
0.0
  0
SPLINE
  5
357
100
AcDbEntity
  8
Layer_1
 62
7
100
AcDbSpline
 70
8
 71
3
 72
8
 73
4
 74
0
 40
0
 40
0
 40
0
 40
0
 40
1
 40
1
 40
1
 40
1
 10
252.340675
 20
451.164174
 30
0.0
 10
254.022761
 20
452.136252
 30
0.0
 10
255.057834
 20
453.932504
 30
0.0
 10
255.055453
 20
455.875069
 30
0.0
  0
LWPOLYLINE
  5
358
100
AcDbEntity
  8
Layer_1
 62
7
100
AcDbPolyline
 90
48
 70
0
 10
64.191735
 20
-218.268611
 30
0.0
 10
64.191735
 20
-213.268786
 30
0.0
 10
69.191740
 20
-213.268786
 30
0.0
 10
69.191740
 20
-206.918794
 30
0.0
 10
88.929155
 20
-206.918794
 30
0.0
 10
88.929155
 20
-213.268786
 30
0.0
 10
108.666573
 20
-213.268786
 30
0.0
 10
108.666573
 20
-206.918794
 30
0.0
 10
138.666489
 20
-206.918794
 30
0.0
 10
138.666489
 20
-213.268786
 30
0.0
 10
158.403907
 20
-213.268786
 30
0.0
 10
158.403907
 20
-206.918794
 30
0.0
 10
178.141325
 20
-206.918794
 30
0.0
 10
178.141325
 20
-213.268786
 30
0.0
 10
193.141258
 20
-213.268786
 30
0.0
 10
193.141258
 20
-220.668617
 30
0.0
 10
199.491242
 20
-220.668617
 30
0.0
 10
199.491242
 20
-225.918738
 30
0.0
 10
193.141258
 20
-225.918738
 30
0.0
 10
193.141258
 20
-242.918698
 30
0.0
 10
199.491242
 20
-242.918698
 30
0.0
 10
199.491242
 20
-248.168554
 30
0.0
 10
193.141258
 20
-248.168554
 30
0.0
 10
193.141258
 20
-255.568676
 30
0.0
 10
178.141325
 20
-255.568676
 30
0.0
 10
178.141325
 20
-261.918668
 30
0.0
 10
158.403907
 20
-261.918668
 30
0.0
 10
158.403907
 20
-255.568676
 30
0.0
 10
138.666489
 20
-255.568676
 30
0.0
 10
138.666489
 20
-261.918668
 30
0.0
 10
108.666573
 20
-261.918668
 30
0.0
 10
108.666573
 20
-255.568676
 30
0.0
 10
88.929155
 20
-255.568676
 30
0.0
 10
88.929155
 20
-261.918668
 30
0.0
 10
69.191740
 20
-261.918668
 30
0.0
 10
69.191740
 20
-255.568676
 30
0.0
 10
54.191807
 20
-255.568676
 30
0.0
 10
54.191807
 20
-248.168554
 30
0.0
 10
47.841823
 20
-248.168554
 30
0.0
 10
47.841823
 20
-242.918698
 30
0.0
 10
54.191807
 20
-242.918698
 30
0.0
 10
54.191807
 20
-225.918738
 30
0.0
 10
47.841823
 20
-225.918738
 30
0.0
 10
47.841823
 20
-220.668617
 30
0.0
 10
54.191807
 20
-220.668617
 30
0.0
 10
54.191807
 20
-213.268786
 30
0.0
 10
59.191783
 20
-213.268786
 30
0.0
 10
59.191783
 20
-218.268611
 30
0.0
  0
LWPOLYLINE
  5
359
100
AcDbEntity
  8
Layer_1
 62
7
100
AcDbPolyline
 90
2
 70
0
 10
55.691805
 20
44.980306
 30
0.0
 10
55.691805
 20
43.980182
 30
0.0
  0
SPLINE
  5
35a
100
AcDbEntity
  8
Layer_1
 62
7
100
AcDbSpline
 70
8
 71
3
 72
8
 73
4
 74
0
 40
0
 40
0
 40
0
 40
0
 40
1
 40
1
 40
1
 40
1
 10
59.917328
 20
133.630049
 30
0.0
 10
59.917328
 20
132.736843
 30
0.0
 10
60.393815
 20
131.911344
 30
0.0
 10
61.167324
 20
131.464993
 30
0.0
  0
SPLINE
  5
35b
100
AcDbEntity
  8
Layer_1
 62
7
100
AcDbSpline
 70
8
 71
3
 72
8
 73
4
 74
0
 40
0
 40
0
 40
0
 40
0
 40
1
 40
1
 40
1
 40
1
 10
61.167324
 20
131.464993
 30
0.0
 10
61.940829
 20
131.018376
 30
0.0
 10
62.893831
 20
131.018376
 30
0.0
 10
63.667313
 20
131.464993
 30
0.0
  0
SPLINE
  5
35c
100
AcDbEntity
  8
Layer_1
 62
7
100
AcDbSpline
 70
8
 71
3
 72
8
 73
4
 74
0
 40
0
 40
0
 40
0
 40
0
 40
1
 40
1
 40
1
 40
1
 10
63.667313
 20
131.464993
 30
0.0
 10
64.440819
 20
131.911344
 30
0.0
 10
64.917333
 20
132.736843
 30
0.0
 10
64.917333
 20
133.630049
 30
0.0
  0
LWPOLYLINE
  5
35d
100
AcDbEntity
  8
Layer_1
 62
7
100
AcDbPolyline
 90
2
 70
0
 10
194.641256
 20
59.980288
 30
0.0
 10
194.641256
 20
60.980148
 30
0.0
  0
LWPOLYLINE
  5
35e
100
AcDbEntity
  8
Layer_1
 62
7
100
AcDbPolyline
 90
2
 70
0
 10
64.917333
 20
138.629868
 30
0.0
 10
64.917333
 20
133.630049
 30
0.0
  0
LWPOLYLINE
  5
35f
100
AcDbEntity
  8
Layer_1
 62
7
100
AcDbPolyline
 90
2
 70
0
 10
59.917328
 20
138.629868
 30
0.0
 10
59.917328
 20
133.630049
 30
0.0
  0
ENDSEC
  0
SECTION
  2
OBJECTS
  0
DICTIONARY
  5
C
330
0
100
AcDbDictionary
  3
ACAD_GROUP
350
D
  3
ACAD_MLINESTYLE
350
17
  0
DICTIONARY
  5
D
330
C
100
AcDbDictionary
  0
DICTIONARY
  5
1A
330
C
100
AcDbDictionary
  0
DICTIONARY
  5
17
330
C
100
AcDbDictionary
  3
STANDARD
350
18
  0
DICTIONARY
  5
19
330
C
100
AcDbDictionary
  0
ENDSEC
  0
EOF
